Misc Unsigned Bands - Natural Effect - Drift Chords & Tabs

 

Natural Effect - Drift Chords & Tabs

Misc Unsigned Bands Chords & Tabs

Version: 1 Type: Tab 0 ratings
1 star 2 stars 3 stars 4 stars 5 stars
comments

Natural Effect - Drift Tab

   
new artist
Natural Effect
Drift
D tuning
()= palm mute


Intro
-------------------------------------------------|
-------------------------------------------------|
-------------------------------------------------|
-------15----14-------14-------15-----------12---|
-12-12----12----12-12----12-12----12--10-10------|
-------------------------------------------------|

PreVerse/PostVerse (Guitar 1)
-----------------------------------------------------------------------|
-----------------------------------------------------------------------|
-----10--7--9--77--9--77--10--7---------7------------------------------|
-77--7---7--7--77--7--77--7---7--0--55--5------------------------------|
-77--7---7--7--77--7--77--7---7--0--55--5------------------------------|
-77--7---7--7--77--7--77--7---7--0--55--5------------------------------|

PreVerse/Postverse (Guitar 2) Same as intro
[ Tab from: http://www.guitartabs.cc/tabs/m/misc_unsigned_bands/natural_effect_drift_tab.html ]
Verse (Guitar 1)
--------------------------------------------------------------------------|
--------------------------------------------------------------------------|
--------------------------------------------------------------------------|
-(7777777777777777--5555555555555555--7777777777777777--0--555--0--333)---|
-(7777777777777777--5555555555555555--7777777777777777--0--555--0--333)---|
-(7777777777777777--5555555555555555--7777777777777777--0--555--0--333)---|

Verse (Guitar 2) Same as intro

Chorus (Both Guitars)
------------------------------------------------------------------------|
------------------------------------------------------------------------|
-999999999999/10101010--777777777---------------------------------------|
-999999999999/10101010--777777777--(1-1-1-1-0-0-0)----------------------|
-777777777777/8-8-8-8---555555555--(1-1-1-1-0-0-0)----------------------|
-777777777777/8-8-8-8---555555555--(1-1-1-1-0-0-0)----------------------|

Chorus Cont.
---------------------------------------------------------------------|
---------------------------------------------------------------------|
-999999999999/10101010-55555555/77777777-----------------------------|
-999999999999/10101010-55555555/77777777-----------------------------|
-777777777777/8-8-8-8--33333333/55555555-----------------------------|
-777777777777/8-8-8-8--33333333/55555555-----------------------------|
Comments