Misc Unsigned Bands - Natasha Jd - Lagrimas Chords & Tabs

 

Natasha Jd - Lagrimas Chords & Tabs

Misc Unsigned Bands Chords & Tabs

Version: 1 Type: Tab 0 ratings
1 star 2 stars 3 stars 4 stars 5 stars
comments

Natasha Jd - Lagrimas Tab

   
-----------------------------------------------------------------------------
			     Lagrimas - JD natasha
-----------------------------------------------------------------------------
Tabbed by: Noah Sturm
Email:

Info: jd natasha is a new, young latin artist. She recently released her
debut CD "imperfect/imperfecta" on EMI latin records.


Tuning: STANDARD WITH CAPO ON THIRD FRET
  
INTRO/VERSE
e|------------------------|-------------------------|-----------------------|
B|------------------------|--------1--1p0---0-------|-----------------------|
G|------------------------|--------2--2-----2-------|-----------------------|
D|--------5-5p4---2--(x4)-|--------2--2-----2--(x2)-|--------5-5p4--2-(x2)--|
A|--------2-2-----2-------|---0-0--0--0---0---------|--------2-2----2-------|
E|---0-0--0-0---0---------|-------------------------|---0-0--0-0---0--------|
   all notes lightly palm muted

[ Tab from: http://www.guitartabs.cc/tabs/m/misc_unsigned_bands/natasha_jd_lagrimas_tab.html ]
 Chorus
e|---3-3-3-3-3-3-3----------------------------------------------------------|
B|---3-3-3-3-3-3-3---3-3-3-3-3-3-3-3---1-1-1-1-1-1-1--------------------4---|
G|---0-0-0-0-0-0-0---4-4-4-4-4-4-4-4---0-0-0-0-0-0-0--------------------5---|
D|---0-0-0-0-0-0-0---4-4-4-4-4-4-4-4---2-2-2-2-2-2-2-(x4)--then play ---5---|
A|---2-2-2-2-2-2-2---2-2-2-2-2-2-2-2---3-3-3-3-3-3-3---and let ring out-3---|
E|---3-3-3-3-3-3-3----------------------------------------------------------|
  ...mas

second verse when singing starts
e|--------------------------------------------------------------------------|
B|-------------------------0---0--0----0------------------------------------|
G|--0--0----0----0---------2---2--2----2----------0--0----0---0-------------|
D|--2--2----2----2--(x4)---2---2--2----2--(x2)----2--2----2---2---(x2)------|
A|--2--2----2----2---------0---0--0----0----------2--2----2---2-------------|
E|--0--0----0----0--------------------------------0--0----0---0-------------|
  strum all chords lightly and let them ring out

Bridge
e|-----------------|
B|-----------------|
G|-----------------|
D|-------5-5p4---2-| (x8)
A|-------2-2-----2-|
E|--0-0--0-0---0---|


| /  slide up
| \  slide down
| h  hammer-on
| p  pull-off
| ~  vibrato
| +  harmonic
| x  Mute note
=============================================================================

-thanks
Comments