Misc Unsigned Bands - Municipal Waste - Unleash The Bastard Chords & Tabs

 

Municipal Waste - Unleash The Bastard Chords & Tabs

Misc Unsigned Bands Chords & Tabs

Version: 1 Type: Tab 0 ratings
1 star 2 stars 3 stars 4 stars 5 stars
comments

Municipal Waste - Unleash The Bastard Tab

   
Band:  Municipal Waste
Album: Hazardous Mutation
Song:  Unleash The Bastard

Copyright (c)  (Earache) (2005)
Version 1.0 - (03/10/05)

Transcribed By: (Steve)
Email:          (stephen.elvidge1@ntlworld.com)


.  - palm mute           /  - slide up to
\  - slide down to       ~  - vibrato
h  - hammer on           b  - Bend
p  - pull off            Suffixes for bend
t  - tap                 f  - full bend    h - half bend
ph - pinched harmonic    q  - quarter bend t - tap bend
*  - see comment         ^  - Hold bend    r release bend
x  - Stuccatto           ~  - vibrato bend
,  - slight palm mute    () - ghost note, sustained note
"  - tremolo note        <> - Trill

Tunning E A D G B E
 
 Intro

 Drum fill


E--------------------------------|
B--------------------------------|
G--------------------------------|
D-5/7-5\4-7/9---(9)---5/7-5\4-7--|
A-3/5-3\2-5/7---(7)---3/5-3\2-5--|
E-----------7---(7)-----------5--|

 Verse
         [-PM-]                   [-PM-]
E-------------------------------------------------|
B-------------------------------------------------|
G-------------------------------------------------|
D-9-9\7/9--------9\7/12\10-9-9\7/9------5/7-5\4/7-|
A-7-7\5/7--------7\5/10\9--7-7\5/7------3/5-3\2/5-|
E---------0000-0-------------------0000-----------| Rpt 4 X

 Guitar 2 enters 3rd time
E-------------------------------------------------|
B-------------------------------------------------|
G-------------------------------------------------|
D-5-5-4-5--------5-4/9--7--5-5-4-5------2-4-2---4-|
A---------------------------------------------5---|
E---------0000-0-------------------0000-----------| Rpt

 Chorus
         [PM]               [-PM-]
E---------------------------------------------------|
B---------------------------------------------------|
G----------------------------------9/11/12/14\12\11-|
D-5-5-(5)-------------------------------------------|
A-3-3-(3)-333-5p3\2-3p2---2--------7/9-/10/12\10\9--|
E-----------------------3-0---0000------------------|

          [PM]             [--PM--] [--PM--]
E---------------------------------------------------|
B---------------------------------------------------|
G----------------------------------9--------9/11/12-|
D-5-5-(5)--------------------------9----------------|
A-3-3-(3)-333-5p3\2-3p2---2--------7--------7/9-/10-|
E-----------------------3-0-000000---000000---------|

         [PM]                [-PM-]
E---------------------------------------------------|
B---------------------------------------------------|
G----------------------------------9/11/12/14\12\11-|
D-5-5-(5)-------------------------------------------|
A-3-3-(3)-333-5p3\2-3p2---2--------7/9-/10/12\10\9--|
E-----------------------3-0---0000------------------|

         [PM]                    harmonic trem dive
E---------------------------------<7>--------|
B--------------------------------------------|
G--------------------------------------------|
D-5-5-(5)------------------------------------|
A-3-3-(3)-333-5p3\2-3p2---2--(2)-------------|
E-----------------------3-0--(0)-------------|

 Rpt Verse 2 X

    [--------PM--------]        [------------PM------------]ph~~
E---------------------------------------------------------------|
B---------------------------------------------------------------|
G---------------------------------------------------------------|
D-9---------------------5-7-10\9--------------------------------|
A-7---------------------3-5-8-\7-----------------10-9-7-9-7-5---|
E---000-000-000-000-000----------000-000-000-000----------------| Rpt 
[ Tab from: http://www.guitartabs.cc/tabs/m/misc_unsigned_bands/municipal_waste_unleash_the_bastard_tab.html ]
  Guitar 1
E[---------------------------------------|
B[---------------------------------------|
G[---------------------------------------|
D[-9-------------------------------------|
A[-7-------------------------------------|
E[---------------------------------------|
 [Guitar 2
 [  [-PM-]  [-PM-]  [-PM-]      [-PM-]ph
E[---------------------------------------|
B[---------------------------------------|
G[---------------------------------------|
D[---------------------------------------|
A[-7-------7-------7-------8-7-5-5-7-8---|
E[---0-0-0---0-0-0---0-0-0---------------|

 Both guitars
   [-PM-]  [-PM-]  [-PM-]      [-PM-]ph
E---------------------------------------|
B---------------------------------------|
G---------------------------------------|
D-5-------5-------5---------------------|
A-3-3-3-3-3-3-3-3-3-3-3-3-5-3-2-2-3-5---|
E---------------------------------------|

   [-PM-]  [-PM-]  [-PM-]      [-PM-]ph
E---------------------------------------|
B---------------------------------------|
G---------------------------------------|
D---------------------------------------|
A-7-------7-------7-------8-7-5-5-7-8---|
E---0-0-0---0-0-0---0-0-0---------------|

   [-PM-]  [-PM-]  [-PM-]      [-PM-]ph
E---------------------------------------|
B---------------------------------------|
G---------------------------------------|
D-5-------5-------5---------------------|
A-3-3-3-3-3-3-3-3-3-3-3-3-5-3-2-2-3-5---|
E---------------------------------------|

   [-PM-]           ph~  [-PM-]           
E------------------------------------------------------|
B------------------------------------------------------|
G------------------------------------------------------|
D-----------4-5-7-5-4---5-------5-4-----7-5-5-4--4-----|
A-7-------7-------------3-3-3-3-----3-3------------7\--|
E---0-0-0----------------------------------------------| Rpt

   [----------PM----------]        [---------------PM---------------]ph~~
E-----------------------------------------------------------------------|
B-----------------------------------------------------------------------|
G-----------------------------------------------------------------------|
D-9-------------------------5-7-10\9------------------------------------|
A-7-------------------------3-5-8-\7----------------------10-9-7-9-7-5--|
E---0-0-0-0-0-0-0-0-0-0-0-0-----------0-0-0-0-0-0-0-0-0-0---------------| Rpt

    [--------PM--------]        [------------PM------------]ph~~
E---------------------------------------------------------------|
B---------------------------------------------------------------|
G---------------------------------------------------------------|
D-9---------------------5-7-10\9--------------------------------|
A-7---------------------3-5-8-\7-----------------10-9-7-9-7-5---|
E---000-000-000-000-000----------000-000-000-000----------------| Rpt

 Rpt Chorus 

 Additional Guitar
                                                       ~~~~~~~~~~~~~
E-------------------------------------------------------------------|
B-------------------------------------------------------------------|
G-------------------------------------------------------------------|
D-4-44/5-55/777-9\7/9/10--10-1010-10-1010-10-9-7\5/7-5--------------|
A------------------------------------------------------7----(7)-----|
E-------------------------------------------------------------------|

E------------------------------------------------------|
B------------------------------------------------------|
G------------------------------------------------------|
D---4-5/7-5/7-10-1010-10-1010-10-9-7\5/7-5-------------|
A-7----------------------------------------7----(7)----|
E------------------------------------------------------|

 Ending

E-------------|
B-------------|
G-------------|
D-5/7-5\4-7/9-|
A-3/5-3\2-5/7-|
E---------5/7-|



END

Comments