Misc Unsigned Bands - Morelli Reed - Aa Flyer Chords & Tabs

 

Morelli Reed - Aa Flyer Chords & Tabs

Misc Unsigned Bands Chords & Tabs

Version: 1 Type: Tab 0 ratings
1 star 2 stars 3 stars 4 stars 5 stars
comments

Morelli Reed - Aa Flyer Tab

   
Reed morelli is a solo artist from golden colorado, he has also posted The Angry Russian tab


Song: AA Flyer
Artist: Reed Morelli
Tuning: Eadgbe

Intro
-0--0-0-0-0-0-0-0-0-0-0-0-0--0--0--0 |-0--0-0-0-0-0-0-0-0-0-0-0--0--0--0----------|
-0--0-0-0-0-0-0-0-0-0-0-0-0--0--0--0 |-1--1-1-1-1-1-1-1-1-1-1-1--0--0--0----------|
-2--2-2-2-2-2-2-2-2-2-2-2-2--2--2--2 |-2--2-2-2-2-2-2-2-2-2-2-2--2--2--2----------|
-2--2-2-2-2-2-2-2-2-2-2-2-2--2--2--2 |-2--2-2-2-2-2-2-2-2-2-2-2--2--2--2----------|
--------------------------------------|-------------------------------------------|
--------------------------------------|-------------------------------------------|

<--------------------------------Play twice--------------------------------------->

-0--0-0-0-0--0--0-0-0-0-0-0--0--0-0-0-0-0-0--0--0-0-0-|---------------------------|
-0--0-0-0-0--1--0-0-0-0-0-0--1--0-0-0-0-0-0--1--0-0-0-|---------------------------|
-2--2-2-2-2--2--2-2-2-2-2-2--2--2-2-2-2-2-2--2--2-2-2-|---------------------------|
-2--2-2-2-2--2--2-2-2-2-2-2--2--2-2-2-2-2-2--2--2-2-2-|---------------------------|
--------------------------------------------------------|-------------------------|
--------------------------------------------------------|-------------------------|


-0--0-0-0-0--0--0-0-0-0-0-0--0--0-0-0-0-0-0--3--0--0--|------------------------------|
-0--0-0-0-0--1--0-0-0-0-0-0--1--0-0-0-0-0-0--1--1--0--|-----------1-0---1p0----------|
-2--2-2-2-2--2--2-2-2-2-2-2--2--2-2-2-2-2-2--2--2--2--|-----2---2-----2-------2-0----|
-2--2-2-2-2--2--2-2-2-2-2-2--2--2-2-2-2-2-2--2--2--2--|-2-2---2-------------2--------|
--------------------------------------------------------|----------------------------|
--------------------------------------------------------|----------------------------|


------0--|-------------------------------------------------------------------------|
------1--|-------------------------------------------------------------------------|
------2--|-------------------------------------------------------------------------|
-2-0--2--|-------------------------------------------------------------------------|
---------|-------------------------------------5-5-7--5-5-5-7-5--5-7--5-5-5-7-5----|
---------|--5-5-8--5-5-5-8-5--5-8--5-5-5-8-5---------------------------------------|

End Intro  |


----------------------------------------------5-8-5-------8-5------------------------|
--------------------------------------5-5-8-5------5--8-5----------------------------|
------------------5-5-7--5-5-5-7-5---------------------------7b9-5-------------------|
-5-5-7--5-5-5-7-5----------------------------------------------------7---------------|
-------------------------------------------------------------------------------------|
-------------------------------------------------------------------------------------|

[ Tab from: http://www.guitartabs.cc/tabs/m/misc_unsigned_bands/morelli_reed_aa_flyer_tab.html ]
-0-0--0--0-0-0--0--0--0-0--0-0-0--0--0--0-0--0--0-0-0--0--0--0-0--0-0-0--0--0--------|
-0-0--1--0-0-0--1--0--0-1--0-0-0--1--0--0-0--3--0-0-0--3--0--0-3--0-0-0--3--0--------|
-2-2--2--2-2-2--2--2--2-2--2-2-2--2--2--4-4--4--4-4-4--4--4--4-4--4-4-4--4--4--------|
-2-2--2--2-2-2--2--2--2-2--2-2-2--2--2--4-4--4--4-4-4--4--4--4-4--4-4-4--4--4--------|
-------------------------------------------------------------------------------------|
-------------------------------------------------------------------------------------|

<-------------------------------------Play 2 times---------------------------------->


---------------------------8-10b12r10-8---------------------------------------------|
----------------------8-10--------------10-----10-8---8-10---8-10--8-10--8-10-------|
------------------7-9----------------------9-7------9-------9-----9-----9------9----|
-------------7-10-------------------------------------------------------------------|
------7-9s10------------------------------------------------------------------------|
-8-10-------------------------------------------------------------------------------|

-12r10--8~~--12-10-----------------------------------|-------------------------------|
-------------------13b14-----------------------------|-------------------------------|
-------------------------12-9------------------------|-------------------------------|
------------------------------12-10------------------|-------------------------------|
------------------------------------12-11-10---------|-------------------------------|
---------------------------------------------12-10s8-|-8-8-10--8-8-8-10--8-8-8-10----|


-------------------------------------------------8-5s3-5-|--------------------------|
--------------------------------------10-8s5-5-8---------|--------------------------|
----------------------------------9-7--------------------|--------------------------|
------7-7-10--7-7-7-10--7-7-7-10------------------------|---------------------------|
-10-7----------------------------------------------------|--------------------------|
---------------------------------------------------------|--------------------------|


-0--0--0-0--0--0-0--0--0--0--0-0--0--0-0--0--0--0--0-0--0--0-0--0--0----0-----0------|
-0--0--0-0--0--0-0--0--1--1--1-1--1--1-1--1--0--0--0-0--0--0-0--0--1p0--0-----0------|
-2--2--2-2--2--2-2--2--2--2--2-2--2--2-2--2--2--2--2-2--2--2-2--2--2----2p0---0------|
-2--2--2-2--2--2-2--2--2--2--2-2--2--2-2--2--2--2--2-2--2--2-2--2--2----2p0---0------|
-------------------------------------------------------------------------------------|
-------------------------------------------------------------------------------------|


-8-5--------------------------------------|
-----8-5----------------------------------|
---------7b9-5----------------------------|
---------------5h7-5----------------------|
---------------------7-5------------------|
-------------------------8-5--------------|
softly finger pick this last bit slowly

b=bend
h=hammer on
s=slide
p=pull off
r=release bend

There it is have fun with this one it took me a couple of hours.

Peace,
Reed Morelli
Comments