Misc Unsigned Bands - Metabolic - I Am Not Chords & Tabs

 

Metabolic - I Am Not Chords & Tabs

Misc Unsigned Bands Chords & Tabs

Version: 1 Type: Tab 0 ratings
1 star 2 stars 3 stars 4 stars 5 stars
comments

Metabolic - I Am Not Tab

   
This is the first song from the local band, Metabolic. It's an easy enjoyable song
with simple riffs and song structure. Check them out at www.Metabolic.8m.net or
www.MySpace.com/Metabolic. You can purchase Metabolic merchandise at www.CafePress.com/Metabolic. Enjoy!
-----------------------------------------------------------------------------
			     I Am Not - Metabolic
-----------------------------------------------------------------------------
Tabbed by: Josh
Email: Metabolic84@hotmail.com

Tuning:(low-high)BEADGC

| /    slide up
| \    slide down
| h    hammer-on
| p    pull-off
| ~    vibrato
| +    harmonic
| x    Mute note
| m    Palm Mute
| /()  pickscrape

Intro
C|--------------------------------------------------------------------------|
G|--------------------------------------------------------------------------|
D|--------------------------------------------------------------------------|
A|--2-2-XXXX--2-2-XXXX--2-2-XXXX--2-2-5-5-----------------------------------|
E|--2-2-XXXX--2-2-XXXX--2-2-XXXX--2-2-5-5-----------------------------------|
B|--------------------------------------------------------------------------|

Verse 1
C|--------------------------------------------------------------------------|
G|--------------------------------------------------------------------------|
D|--------------------------------------------------------------------------|
A|--3-33-3-5-5--3-33-3-5-5--3-33-3-5-5--3-33-3-33-3-------------------------|
E|--1-11-1-3-3--1-11-1-3-3--1-11-1-3-3--1-11-1-11-1-------------------------|
B|--------------------------------------------------------------------------|

Verse 2
C|--------------------------------------------------------------------------|
G|--------------------------------------------------------------------------|
D|--------------------------------------------------------------------------|
A|--2-255-77-5+--2-255-77-5+--2-255-77-5+-----------------------------------|
E|--0-033-55-----0-033-55-----0-033-55--------------------------------------|
B|-----------5+-----------5+-----------5+-----------------------------------|
[ Tab from: http://www.guitartabs.cc/tabs/m/misc_unsigned_bands/metabolic_i_am_not_tab.html ]
Chorus
C|--------------------------------------------------------------------------|
G|--------------------------------------------------------------------------|
D|--------------------------------------------------------------------------|
A|--6-6666-222-2-2--6-6666-222-2-2--6-6666-222-2-2--5-5-57-6-5-4------------|
E|--4-4444-000-0-0--4-4444-000-0-0--4-4444-000-0-0--3-3-35-4-3-2------------|
B|--------------------------------------------------------------------------|

Solo
C|12m10m11m12m10m11m12m10m11m12m10m11m10m8m9m6m7m5m7m4m6m3m4m2m4m1m2m3m1m2m4|
G|--------------------------------------------------------------------------|
D|--------------------------------------------------------------------------|
A|--------------------------------------------------------------------------|
E|--------------------------------------------------------------------------|
B|--------------------------------------------------------------------------|

C|5m3m6m5m7m5m8m7m9m7m10m9m12m11m10m12m11m10m12~~~--------------------------|
G|--------------------------------------------------------------------------|
D|--------------------------------------------------------------------------|
A|--------------------------------------------------------------------------|
E|--------------------------------------------------------------------------|
B|--------------------------------------------------------------------------|

Outro
C|--------------------------------------------------------------------------|
G|--------------------------------------------------------------------------|
D|--------------------------------------------------------------------------|
A|--2------s(12\0)----5m----------------------------------------------------|
E|--0------s(12\0)----3m----------------------------------------------------|
B|---------s(12\0)----------------------------------------------------------|



Song Structure:
Intro     1x
Verse 1   4x
Chorus    2x
Verse 1   4x
Chorus    2x
Verse 2   4x
Chorus    2x
Verse 2   4x
Chorus    2x
Solo      1x--Chorus    1x(behind solo)
Chorus    4x
Outro     1x
=============================================================================
Comments