Misc Unsigned Bands - Max Resist - Romantic Violence Chords & Tabs

 

Max Resist - Romantic Violence Chords & Tabs

Misc Unsigned Bands Chords & Tabs

Version: 1 Type: Tab 0 ratings
1 star 2 stars 3 stars 4 stars 5 stars
comments

Max Resist - Romantic Violence Tab

Max Resist is a Resistance band in Detroit, Michigan, USA. They play mainly Oi and are
very popular underground.

Intro:

e-|-----------------------------------------|
B-|-----------------------------------------|
G-|-----------------------------------------|
D-|---4-----11-11---9-------2------9----7---|
A-|-2---2-9-------7---7---0---0-7-7---5---5-|
E-|-----------------------------------------| (Do 4x, last time do this:

e-|----------------------------------------|
B-|----------------------------------------|
G-|----------------------------------------|
D-|---4-----11-11---9-------2-----9-7------|
A-|-2---2-9-------7---7---0---0-7---7------|
E-|----------------------------------------|
[ Tab from: http://www.guitartabs.cc/tabs/m/misc_unsigned_bands/max_resist_romantic_violence_tab.html ]
Main Song Riff:
  IE: (Together we will be till...)
e-|----|-----|----|---|----|----|----|
B-|----|-----|----|---|----|----|----|
G-|----|-----|----|---|----|----|----|
D-|4---|11---|9---|---|2---|9---|7---|
A-|2---|9----|7---|---|0---|7---|5---|
E-|----|-----|----|---|----|----|----|
  (7x)  (2x)  (3x)     (7x) (2x) (3x)

Chorus:
 IE: Romantic Violence!
e-|----------------------------|
B-|----------------------------|
G-|----*---------------*-------|
D-|4-4/11-11-9-----2-2/9-9-7---|
A-|2-2/9--9--7-----0-0/7-7-5---|
E-|----------------------------|

For lyrics go to:

http://www.freeyourmindproductions.com/archives/01/max-resist-renegade-youth-lyrics

Alright this is from Max's Resist album "Renegade Youth".
It has a solo about 4/5 into the song, and I will tab it someday, but don't hold your 
For more Resistance titles mail me at:        Solo_Team@hotmail.com
Comments