Misc Unsigned Bands - Max Resist - Robert J Matthews Chords & Tabs

 

Max Resist - Robert J Matthews Chords & Tabs

Misc Unsigned Bands Chords & Tabs

Version: 1 Type: Tab 0 ratings
1 star 2 stars 3 stars 4 stars 5 stars
comments

Max Resist - Robert J Matthews Tab

   
-------------------------------------------------------------------------------
			     ROBERT J MATTHEWS - Max Resist
-------------------------------------------------------------------------------
Tabbed by: Gun-Ryo
Email: Solo_Team@hotmail.com


UPDATES! - New riff to the song, look under this song to find updates on tabs (easier to play)

Intro:
e|----------------------------------------------------------------|
B|----------------------------------------------------------------|
G|----------------------------------------------------------------|
D|------------77777-55/44-----------------------------------------|
A|-55555555---55555-33/22-----------------------------------------|
E|-33333333-------------------------------------------------------|

Riff:
e|----------------------------------------------------------------|
B|----------------------------------------------------------------|
G|----------------------------------------------------------------|
D|---xxxxxxxxxx---77777-55/44-------------------------------------|
A|--55555555555---55555-33/22-------------------------------------|
E|--33333333333---------------------------------------------------|
[ Tab from: http://www.guitartabs.cc/tabs/m/misc_unsigned_bands/max_resist_robert_j_matthews_tab.html ]
CHORUS: Last note of last both chorus' played, hit the AD 53 3x.
e|----------------------------------------------------------------|
B|----------------------------------------------------------------|
G|----------------------------------------------------------------|
D|------7777------77/5--------------------------------------------|
A|--555-5555--555-55/3--------------------------------------------|
E|--333-------333-------------------------------------------------|

SOLO: (Hold Last Note)
e|----------------------------------------------------------------|
B|----------------------------------------------------------------|
G|-----------14-12-11----------14-12-11----------14-12-11---------|
D|--12 12 12----------12-12-12----------12-12-12----------12------|
A|----------------------------------------------------------------|
E|----------------------------------------------------------------|


PLAY:

Intro 4x
Riff 4x
Chorus 3x
Intro 1x
Riff 4x
Chorus 2x
Solo 1x
Chorus 4x

Last Bit (OI OI OI OI) is:
e|------------------------------------------------------------------|
B|------------------------------------------------------------------|
G|------------------------------------------------------------------|
D|------777---------------------------------------------------------|
A|--555-555---------------------------------------------------------|
E|--333-------------------------------------------------------------|
Hold Last 7/5 till fade

| /  slide up
| \  slide down
| h  hammer-on
| p  pull-off
| ~  vibrato
| +  harmonic
| x  Mute note
===============================================================================



ALSO!


I have found a new (not necessarily better) Way to play this.


on 4 & 5:

444444444-4/1111111111-99/88
222222222-2/-9-9-9-9-9-77/66
Comments