Misc Unsigned Bands - Masonic Youth - Schizophrenic Chords & Tabs

 

Masonic Youth - Schizophrenic Chords & Tabs

Misc Unsigned Bands Chords & Tabs

Version: 1 Type: Tab 0 ratings
1 star 2 stars 3 stars 4 stars 5 stars
comments

Masonic Youth - Schizophrenic Tab

   
INTRO RIFF
Gtr.1 (light distortion)
E-----------------------------------------------------------------------------|
B--------6--------------------------------------------------------------------|
G--------6-8b-8b-8b-8b-6-8-6--------------------------------------------------|
D----6h8---------------------8-6-4-4-4----------------------------------------|
A-6h8-------------------------------8-8-6-4--6-8-6-6-8-8-9-8------8-6-4-4-4-4-|
E-------------------------------------------------9----------11-11------------|

E------------------------------------------|---------------------------------|
B------------------------------------------|---------------------------------|
G--10-10-10-10-10-8-8-8-8-8--------------6-|-6-6-6---------------------------|
D---X--X--X--X--X-X-X-X-X-X-----4---4----6-|-6-6-6-X-3-3-3-------------------|
A-6-8--8--8--8--8-6-6-6-6-6--4h6-4h6-4h6-4-|-4-4-4-X-3-3-3-------------------|
E------------------------------------------|-------X-1-1-1-------------------|
                                                   Gtr.1 & 2 play x2
VERSE
Gtr.1 (distortion)

E------------------------------------------------------|
B------------------------------------------------------|
G-------------------------6-X-X-X-X-X------------------|
D-3-X-X-X-X-X-4-X-X-X-X-X-6-X-X-X-X-X-6-X-X-X-X-X-X----|
A-3-X-X-X-X-X-4-X-X-X-X-X-4-X-X-X-X-X-6-X-X-X-X-X-X----|
E-1-X-X-X-X-X-2-X-X-X-X-X-------------4-X-X-X-X-X-X----| x2 x= palm muting.

PRE-CHORUS
Gtr.1

E-----------------------------------------------------------|
B-----------------------------------------------------------|
G-----------------------------6-6-6-6-6-6-6-----------------|
D-3-3-3-3-3-3-3-4-4-4-4-4-4-4-6-6-6-6-6-6-6-6-6-6-6-6-6-6---|
A-3-3-3-3-3-3-3-4-4-4-4-4-4-4-4-4-4-4-4-4-4-6-6-6-6-6-6-6---|
E-1-1-1-1-1-1-1-2-2-2-2-2-2-2---------------4-4-4-4-4-4-4---| x2

Gtr 2. (massive distortion.)

E------------------------------9*---------------------------|
B-6*------------7*----------------------------9*------------|
G-----------------------------------------------------------|
D-----------------------------------------------------------|
A-----------------------------------------------------------|
E-----------------------------------------------------------| x2 *= let ring.

CHORUS.
Gtr.1 & 2 (distortion)

E-------------------------------------------------------------|
B-------------------------------------------------------------|
G-----------------------6-6-6-6-6-----------------------------|
D/8-8-8-8-8--4-4-4-4-4--6-6-6-6-6--6-6-6-6-6-6----------------|
A/8-8-8-8-8--4-4-4-4-4--4-4-4-4-4--6-6-6-6-6-6----------------|
E/6-6-6-6-6--2-2-2-2-2-------------4-4-4-4-4-4----------------| x4 /= slide

BRIDGE.
Gtr. 1 (distortion)

E---------------------------------------------------------|
B---------------------------------------------------------|
G-6-6-6-6-6----------------------8b-8b-8br8p(6)-----------|
D-6-6-6-6-6-4-4-4-4-4-6-6-6-6-6---------------------------|
A-4-4-4-4-4-4-4-4-4-4-6-6-6-6-6---------------------------|
E-----------2-2-2-2-2-4-4-4-4-4---------------------------|

E------------------------------------------------4--------------|
B------------------------------------------------4--------------|
G-6-6-6-6-6--------------------------------------4--------------|
D-6-6-6-6-6-4-4-4-4-4-6-X-X-X-X-X-X-X-6-6-6-6-6--4--------------|
A-4-4-4-4-4-4-4-4-4-4-6-X-X-X-X-X-X-X-6-6-6-6-6-----------------|
E-----------2-2-2-2-2-4-X-X-X-X-X-X-X-4-4-4-4-4-----------------|

INTERLUDE
Gtr.2 plays verse over Gtr. 1 fast 5th Arpeggios.
[ Tab from: http://www.guitartabs.cc/tabs/m/misc_unsigned_bands/masonic_youth_schizophrenic_tab.html ]
E-----------------------------------|   |-------------------------------|
B-----------------------------------|   |-------------------------------|
G--------------------6---6----------|   |---------------6--6------------|
D---3---3---4---4---6-6-6-6--6---6--|   |--3--3--4--4----6--6--6--6-----|
A--3-3-3-3-4-4-4-4-4---4----6-6-6-6-|   |---3--3--4--4-4--4-----6--6----|
E-1---1---2---2------------4---4----|x2 |-1--1--2--2---------4---4------|x2

FINAL CHORUS
Gtr.1 - played over regular chorus guitar 2 rythym part.

E--------------------------------------------------------------------|
B--------------------------------------------------------------------|
G---------------------------------6---6------------------------------|
D------8---8--------4----4--------------------6--6-------------------|
A----------------------------4-4-4-4-4-4-----------------------------|
E-6-6-6-6-6--6-2-2-2--2-2--2-------------4-4-4-4-4-4-----------------|

ENDING.
Gtr.1

E-------------------------------------------------|
B-------------------------------------------------|
G-------------------------------------6-X-X-X-X-X-|
D-3-X-X-X-X-X-4-X-X-X-X-X-6-X-X-X-X-X-6-X-X-X-X-X-|
A-3-X-X-X-X-X-4-X-X-X-X-X-6-X-X-X-X-X-4-X-X-X-X-X-|
E-1-X-X-X-X-X-2-X-X-X-X-X-4-X-X-X-X-X-------------| x= palm muting.

E----------------------------------------------|
B----------------------------------------------|
G-------------------------------------6* <-----| Gtr.2 doubles up final chord.
D-3-X-X-X-X-X-4-X-X-X-X-X-6-X-X-X-X-X-6--------|
A-3-X-X-X-X-X-4-X-X-X-X-X-6-X-X-X-X-X-4--------|
E-1-X-X-X-X-X-2-X-X-X-X-X-4-X-X-X-X-X----------|  *= let ring

ORDER...
intro
verse
pre-chorus
chorus
bridge
verse
pre-chorus
chorus
final chorus
bridge
interlude
end

|||||||||||||||||||BASS|||||||||||||||||||

VERSE/PRE-CHORUS

G------------------------------------------------------------------|
D-3-3-3-3-3-3-3-3--------------------------------------------------|
A-----------------4-4-4-4-4-4-4-4-4-4-4-4-4-4-4-4------------------|
E--------------------------------------------------4-4-4-4-4-4-4-4-|


CHORUS

G-------------------------------------------------------------------|
D-8-8-8-8-8-8-8-8-8-------------------------------------------------|
A-------------------4-4-4-4-4-4-4-4-----------------6-6-6-6-6-6-6-6-|
E-----------------------------------4-4-4-4-4-4-4-4-----------------|

BRIDGE

G---------------------------------------------------------------------|
D---------------------------------------------------------------------|
A-4-4-4-4-4-----------------------------------------------------------|
E-----------2-2-2-2-2-4-4-4-4-4-4-4-4-4-4-4-4-------------------------|

ENDING

G---------------------------------------------------------------------|
D-3-3-3-3-3-3-3-3-----------------------------------------------------|
A------------------4-4-4-4-4-4-4-4----------------4-4-4-4-4-4-4-4-4---|
E----------------------------------4-4-4-4-4-4-4-4--------------------|

I don't understand, Am I paranoid or have I just sold (out)
I've no idea, What I've just been told
I reprimand, I'm sick of your demands,
I'm locked inside myself but I'm no less of a man

And I said hey______________
Take your business some place else
Somewhere free of me inconvinience oneself
Take your contradictions live life up your ass
Just ****ing do it - on the other side of the glass

I don't believe in much, but I believe in self-hate
A way to vend it found in those that masturbate
And maybe you should find your way through that gate
Cus the way you act is nothing short of a disgrace

CHORUS 2: You wasted it all, think of what you could have had
You screwed up, really, really, bad
Are you mental- are you ****ing mad
A self-traitor: The victim of a back-stab
Comments