Misc Unsigned Bands - Masonic Youth - My Way Chords & Tabs

 

Masonic Youth - My Way Chords & Tabs

Misc Unsigned Bands Chords & Tabs

Version: 1 Type: Tab

Masonic Youth - My Way Tab

INTRO
Gtr.1

E-----3-0-2-2-2h3------------0---------------------|
B-----3-0-3-3----3--3--3---0-0-0-2-2-1h3----2------|
G----0--0-2-2-----2----2---0---0-0-0-----0--0------|
D---0---0-0-0------0-0-0--2----0-2-2------2--2-----|
A-------------------------2------3-3-------3-3-----|
E-3----------------------0-------------------------|

Gtr. 2
[ Tab from: http://www.guitartabs.cc/tabs/m/misc_unsigned_bands/masonic_youth_my_way_tab.html ]
E--------------------------------------------------|
B--------------------------------------------------|
G-7----5----4---5---4----2---7----5----4----5-4-2--|
D--------------------------------------------------|
A--------------------------------------------------|
E--------------------------------------------------|

CHORUS

Gtr.1 ----------------------------------| G_______D_______E_______C
Gtr. 2 ------> G5      D5      E5-------|      C,B,C,B

Life is short yet death is forever
So we musn't rush past life's endevour
Knowing each minute could be you last
Always look forwards don't dwell on the past

CHORUS: Soon my life will be gone like yours
I want to look back on it all
Filled with pride, I want to say:
Gave it my best shot... I did it my way

Live each day like it's your last,
tomorrow the flags may fly at half mast
Don't fixate on moments gone
Don't look back into the sun