Misc Unsigned Bands - Luna Sea - Rosier Chords & Tabs

 

Luna Sea - Rosier Chords & Tabs

Misc Unsigned Bands Chords & Tabs

Version: 1 Type: Bass Tab 0 ratings
1 star 2 stars 3 stars 4 stars 5 stars
comments

Luna Sea - Rosier Bass Tab

   
+++++++++++++++++++++++LUNA-SEA+ROSIER++++++++++++++++++
Luna Sea are a rock band from Japan. I didnt see any J-Rock tabs on here except X-Japan 
i thought i would submit a luna sea tab.

INTRO:

G-----------------------------------------------------|
D----------------2-------------2----------------------|
A--0-2-4--4-4-4---4-2-2--2-2-2--4-0-0-0-0-0-0-0-0-0-0-|
E-----------------------------------------------------|

X4

G----------------------------------------------|
D---------2--1-----2--1-----2--1-----2--1------|
A--0-2-4-------4-4------4-4------4-4------4-4--|
E----------------------------------------------|

X1

VERSE:

G----------------------------------------------------------------------------|
D----------------------------------------------------------------------------|
A4-4-4-4-4-4-4-4-4-4-4-4-4-4-6-7-6-4-0-0-0-0-0-0-0-0-0-0-0-0-0-0-0-0-0-0-0-0-|
E----------------------------------------------------------------------------|

X2

BRIDGE:

G-----------------------------------------------------|
D----------------2-------------2----------------------|
A--0-2-4--4-4-4---4-2-2--2-2-2--4-0-0-0-0-0-0-0-0-0-0-|
E-----------------------------------------------------|


X4

2ND VERSE:

G----------------------------------------------------------------------------|
D----------------------------------------------------------------------------|
A4-4-4-4-4-4-4-4-4-4-4-4-4-4-6-7-6-4-0-0-0-0-0-0-0-0-0-0-0-0-0-0-0-0-0-0-0-0-|
E----------------------------------------------------------------------------|

X2

CHORUS:

G-----------------------------------------------------------------------------|
D2-1--------------------------------------------------------------------------|
A---4-4--4-4-4-4------------------------4-4-4-4-----------------------4-4-4-4-|
E----------------4-4-4-4-5-5-5-5-4-4-4-4-------4-4-4-4-5-5-5-5-4-4-4-4--------|


G----------------------------------------------------------------------------|
D----------------------------------------------------------------------------|
A------------------------4-4-4-4---------------------------------------4-4-4-|
E-4-4-4-4-5-5-5-5-4-4-4-4-------4-4-4-4-5-5-5-5-4-4-4-4-4-4-4-4-5-5-5-5------|

G---------------|
D---------------|
A4-2-4----------|
E---------------|

BRIDGE:

G-----------------------------------------------------|
D----------------2-------------2----------------------|
A--0-2-4--4-4-4---4-2-2--2-2-2--4-0-0-0-0-0-0-0-0-0-0-|
E-----------------------------------------------------|

X4

TALKING:

G---------------------------------------------------------|
D---------------------------------------------------------|
A-8-8-8-8-8-8-8-8-7-7-7-7-3-3-3-3-4-4-4-4-2-2-2-2-0-0-0-0-|
E---------------------------------------------------------|

SOLO:
[ Tab from: http://www.guitartabs.cc/tabs/m/misc_unsigned_bands/luna_sea_rosier_btab.html ]
G-----------------------------------------------------------------------------|
D2-1--------------------------------------------------------------------------|
A---4-4--4-4-4-4------------------------4-4-4-4-----------------------4-4-4-4-|
E----------------4-4-4-4-5-5-5-5-4-4-4-4-------4-4-4-4-5-5-5-5-4-4-4-4--------|


G----------------------------------------------------------------------------|
D----------------------------------------------------------------------------|
A------------------------4-4-4-4---------------------------------------4-4-4-|
E-4-4-4-4-5-5-5-5-4-4-4-4-------4-4-4-4-5-5-5-5-4-4-4-4-4-4-4-4-5-5-5-5------|

G---------------|
D---------------|
A4-2-4----------|
E---------------|

CLICKY THING:

G-----------------------------|
D--------------2-1------------|
A-4---2-0-4--------4---2-0-4--|
E-----------------------------|

BRIDGE:

G-----------------------------------------------------|
D----------------2-------------2----------------------|
A--0-2-4--4-4-4---4-2-2--2-2-2--4-0-0-0-0-0-0-0-0-0-0-|
E-----------------------------------------------------|

X4

3RD VERSE:

G----------------------------------------------------------------------------|
D----------------------------------------------------------------------------|
A4-4-4-4-4-4-4-4-4-4-4-4-4-4-6-7-6-4-0-0-0-0-0-0-0-0-0-0-0-0-0-0-0-0-0-0-0-0-|
E----------------------------------------------------------------------------|

X2

DOUBLE CHORUS:

G-----------------------------------------------------------------------------|
D2-1--------------------------------------------------------------------------|
A---4-4--4-4-4-4------------------------4-4-4-4-----------------------4-4-4-4-|
E----------------4-4-4-4-5-5-5-5-4-4-4-4-------4-4-4-4-5-5-5-5-4-4-4-4--------|


G----------------------------------------------------------------------------|
D----------------------------------------------------------------------------|
A------------------------4-4-4-4---------------------------------------4-4-4-|
E-4-4-4-4-5-5-5-5-4-4-4-4-------4-4-4-4-5-5-5-5-4-4-4-4-4-4-4-4-5-5-5-5------|

G-----------------------------------------------------------------------------|
D-----------------------------------------------------------------------------|
A4------------------------4-4-4-4-----------------------4-4-4-4---------------|
E--4-4-4-4-5-5-5-5-4-4-4-4-------4-4-4-4-5-5-5-5-4-4-4-4-------4-4-4-4-5-5-5--|


G--------------------------------------------------------------------|
D--------------------------------------------------------------------|
A----------4-4-4-4---------------------------------------4-4-4-4-2-4-|
E-5-4-4-4-4-------4-4-4-4-5-5-5-5-4-4-4-4-4-4-4-4-5-5-5-5------------|

BRIDGE:

G-----------------------------------------------------|
D----------------2-------------2----------------------|
A--0-2-4--4-4-4---4-2-2--2-2-2--4-0-0-0-0-0-0-0-0-0-0-|
E-----------------------------------------------------|

X4

OUTRO:

G---------------------------------|
D---------------------------------|
A-4-4-4-4-2-2-2-2-0-0-0-0-0-0-0-0-|
E---------------------------------|

X8

By Emily
Comments