Misc Unsigned Bands - Loser Face - Im Still Waiting Chords & Tabs

 

Loser Face - Im Still Waiting Chords & Tabs

Misc Unsigned Bands Chords & Tabs

Version: 1 Type: Tab 0 ratings
1 star 2 stars 3 stars 4 stars 5 stars
comments

Loser Face - Im Still Waiting Tab

   
we are a band from cruces nm. We haven't really gotten known by alot of people
around here so we're just trying to get our tabs on some pages. No one has a
computer so we're using the school one to submit our tabs.this is a good song and
it has two guitar parts. Hope ya like it. Email me at neal_peckham@hotmail.com

intro for gutar 1

e-------------
B-----2-------
G-4444-222----  x6
D-------------
A-------------
E-------------

intro for guitar 2
p.m.
e----------
B----------
G----------  x4
D-00000000-
A----------
E----------

Chorus for guitar 1

e-----------------------------------------
B-----------------------------------------
G-77777777--------------------------------  x2
D-77777777-77777777-99999999-55555555-----
A-55555555-77777777-99999999-55555555-----
E-55555555-55555555-77777777-33333333-----

verse for guitar 2
[ Tab from: http://www.guitartabs.cc/tabs/m/misc_unsigned_bands/loser_face_im_still_waiting_tab.html ]
e-------------------
B-------------------
G-------------------  x2
D-------------------
A----4/5-------4-0--
E-------------------

verse for guitar 1
p.m.
e--------------------------------------
B--------------------------------------
G----------44444444--------------------  x2
D-77777777-22222222-44444444-----------
A-55555555----------22222222-55555555--
E----------------------------33333333--

chorus x2
verse  x2
chorus x2

break

e----------------------------------------
B----------------------------------------
G-7777x777-------------------------------  x2
A-7777x777-9999x999-5555x555-5555x555----
A-5555x555-7777x777-9999x999-5555x555----
E-5555x555-5555x555-7777x777-3333x333----

play intro 2 times with break

chorus x4

outro
both guitars
e--------------------------------------
B-----2--------2--------2--------------
G-4444-222-4444-222-4444-222-----------  x1
D----------------------------444-2-0---
A--------------------------------------
E--------------------------------------


Hope you like the song.
Comments