Misc Unsigned Bands - Logan Buie - Razor Chords & Tabs

 

Logan Buie - Razor Chords & Tabs

Misc Unsigned Bands Chords & Tabs

Version: 1 Type: Tab 0 ratings
1 star 2 stars 3 stars 4 stars 5 stars
comments

Logan Buie - Razor Tab

logan buie - razor

this is a underground artist a good friend of mine been in bands such as face
of difiance and still breathing both now signed by solid state records you might
have cought the new cd "september" this is one of the only simple songs ive ever
heard him play and thought id share it its stuck with me ever since.....
 
as dropped to D

      --------------------------------
      -2-2-0-2-2-0-2-2-0-3-3-0-2-2----        repeat 4x total then strum...
      --2-2---4-4---5-5---5-5---4-4---
      --------------------------------
      --------------------------------
      --------------------------------

      ---        ---     ---    ---     -x--x--x-    ---
      -2-        -2-     -2-    -3-     -x--x--x-    -2-
      -2-        -4-     -5-    -5-     -x--x--x-    -4-
      --- 9x     --- 9x  --- 9x --- 3x  -x--x--x-    --- 3x repeat 4X
      --- or E   ---     ---    ---     -x--x--x-    ---
      ---        ---     ---    ---     -x--x--x-    ---


      then in quicker time
[ Tab from: http://www.guitartabs.cc/tabs/m/misc_unsigned_bands/logan_buie_razor_tab.html ]
      ------------------------------------- ----------------------------------
      -2--0--2--2--2--2--3--3--5--5--5--5-- --2--0--2--2--2--2--5--5--3-3-3-3-
      -2--0--4--4--4--4--5--5--7--7--7--7-- --2--0--4--4--4--4--7--7--5-5-5-5-
      ------------------------------------- ----------------------------------
      ------------------------------------- ----------------------------------
      ------------------------------------- ----------------------------------

   
      ------------------------------------- ----------------------------------
      -2--0--2--2--2--2--3--3--5--5--5--5-- -2--0--2--2--2--2--3--3--2-2-2-2--
      -2--0--4--4--4--4--5--5--7--7--7--7-- -2--0--4--4--4--4--5--5--4-4-4-4--
      ------------------------------------- ----------------------------------
      ------------------------------------- ----------------------------------
      ------------------------------------- ----------------------------------


      simple but really cool especialy if your just begining easy to learn  
      steal or whatever thats not the long version but it gives you a good   
      anyways just thought id share a song that has stuck with me and got 
      me started thatnks
Comments