Misc Unsigned Bands - Less Than Four - Your Mom Chords & Tabs

 

Less Than Four - Your Mom Chords & Tabs

Misc Unsigned Bands Chords & Tabs

Version: 1 Type: Bass Tab

Less Than Four - Your Mom Bass Tab

Less Than Four (L.T.F.) is a band in my hometown in Wisconsin and they do
punk/alternative rock. This song is sort of a weird song, but it's kinda funny and
it's the only song by this band I could get a demo recording of. If you wanna check
em out, theyíre at http://www.betarecords.com/less.than.four/ You can get a recording
of this song there and you can listen to some others. J.R., the bass player for this
band plays this song a little different every time, and each time he plays the repeated
sections, they are always a little different every time, so I just tabbed this whole
thing out from beginning to end going off the demo recording that you can find on their
website. I added in all the lyrics here too, and that is something I should have done in
the guitar part when I tabbed it.

4/4 meter
Tempi:
Q=approx 134-142

In the beginning, there are 3 measures of guitar before the bass comes in.

  (q)q q q   q q q q   q q q q   pretty much same rhythm throughout song
G|---------|---------|---------|---------|---------|---------|---------|
D|---------|---6-----|---------|---------|---------|---6-----|---------|
A|---2-4-6-|-7---7-6-|-4---4-2-|-0---0-4-|-2-2-4-6-|-7---7-6-|-4---4---|
E|---------|---------|---4-----|---0-----|---------|---------|---4---4-|
                                                    Mother...

G|---------|---------|---------|---------|---------|---------|---------|
D|---------|-----9---|---6-----|---------|---------|---------|---6-----|
A|-----7---|-------9-|-7---7-6-|-4---4-2-|-0---0-4-|---------|-7---7-6-|
E|-5-5---5-|-7-7-----|---------|---4-----|---0-----|-7-5-4-2-|---------|


G|---------|---------|---------|---------|---------|---------|---------|
D|---------|-----7---|-----9---|---6-----|---6-----|---------|---------|
A|-4---4---|---------|-------9-|-7---7-6-|-7---7-6-|-4---4-2-|-0---0-4-|
E|---4---4-|-5-5---5-|-7-7-----|---------|---------|---4-----|---0-----|

  (e)q  e q  q  continue w/ same rhythm      (e)q  e q  q   continue w/
G|-------------|---------|---------|---------|-------------|---------|
D|-------------|---6-----|---------|---------|-------------|---6-----|
A|---2--2-0----|-7---7-6-|-4---4-2-|-0---0-4-|--2--2-4--6--|-7---7-6-|
E|-----------4-|---------|---4-----|---0-----|-------------|---------|

same rhythm                                                  (e)q  e q  q
G|---------|---------|---------|---------|---------|---------|-------------|
D|---------|---------|---------|---6-----|---------|---------|-------------|
A|-4---4-2-|-0---0-4-|-2-0-----|-7---7-6-|-4---4-2-|-0---0-4-|--2--2-4--6--|
E|---4-----|---0-----|-----4-2-|---------|---4-----|---0-----|-------------|

continue w/ same rhythm        (e)q  e q  q   continue same rhythm
G|---------|---------|---------|-------------|---------|---------|---------|
D|---6-----|---------|---------|-------------|---6-----|---------|---------|
A|-7---7-6-|-4---4-2-|-0---0-4-|--2--2-4--6--|-7---7-6-|-4---4-2-|-0---0-4-|
E|---------|---4-----|---0-----|-------------|---------|---4-----|---0-----|
[ Tab from: http://www.guitartabs.cc/tabs/m/misc_unsigned_bands/less_than_four_your_mom_btab.html ]
G|---------|---------|---------|---------|---------|---------|---------|
D|---------|---6-----|---------|---------|---------|---6-----|---------|
A|-2-0-----|-7---7-6-|-4---4---|-----7---|-----9---|-7---7-6-|-4---4---|
E|-----4-2-|---------|---4---4-|-5-5---5-|-7-7---7-|---------|---4---4-|

G|---------|---------|---------|---------|---------|---------|---------|
D|---------|-----9---|-7-7-7-6-|-4-4-4---|-7-7-7-6-|-4-4-4---|-7-7-7-6-|
A|-----7---|-------9-|---------|---------|---------|---------|---------|
E|-5-5---5-|-7-7-----|---------|-------7-|---------|-------7-|---------|
                     So mom please donít get rid of me...

                                Bass Solo
G|---------|-----9---|---------||---------|---------|---------|---------|
D|-4-4-4---|-7-7---6-|-4-4-4-4-||---------|---------|-----9---|---------|
A|---------|---------|---------||-7-7-7---|---------|-7-7---7-|---9---7-|
E|-------7-|---------|---------||-------7-|-5-5-5-7-|---------|-7---5---|

                                                     q  q  |-3-| q
G|---------|---------|---------|---------|---------|---------------|
D|---6-7-9-|-9-7-6---|---------|---------|---6-7-9-|-9--7--6-7-6---|
A|-7-------|-------7-|---6-7-9-|---4-5-7-|-7-------|-------------7-|
E|---------|---------|-7-------|-5-------|---------|---------------|

             q  q  |-3-| q   End Solo
G|---------|---------------|---------|---------|--------|---------|---------|
D|---------|-7--7--6-7-6---|---9---9-|-7-------|---9--9-|-7-------|---9---9-|
A|---6-7-9-|-------------9-|-7---7---|---7---7-|-7ó-7---|---7---7-|-7---7---|
E|-7-------|---------------|---------|-----7---|--------|-----7---|---------|


G|---------|---------|---------|---------|---------|---------|---------|
D|-7-------|---9---9-|-7-------|---9---9-|-7-------|---9---9-|-7-------|
A|---7---7-|-7---7---|---7---7-|-7---7---|---7---7-|-7---7---|---7---7-|
E|-----7---|---------|-----7---|---------|-----7---|---------|-----7---|

G|---------|---------|---------|---------|---------|---------|---------|
D|---6-----|---------|---------|---------|---6-----|---6-----|---------|
A|-7---7-6-|-4---4-2-|-0---0-4-|-2-2-4-6-|-7---7-6-|-4---4-2-|-0---0-4-|
E|---------|---4-----|---0-----|---------|---------|---------|---0-----|

             w
G|---------|---------|
D|---------|---------|
A|-2-2-4-6-|-7-------|
E|---------|---------|End.



Mother
How can I not love her
Mother
How can I not miss her
Being
Around her all day
Makes me
Want to go crazy
But thatís okay
We all feel this way
Sometimes
In our simple lives
We love you mom

Maybe
Youíve given up on me
So mom please
Do not disarm me
And ship me off
To some Japanese family
I like the food
But the language kinda scares me

So mom please donít get rid of me
Iím begging of you mom please
I know you love me mother
But I think you love my brother more

I love your mom and your mom and
Your mom and your mom and
Your mom and your mom and
Your mom and your mom and
Your mom and your mom and
Your mom and your mom and
Your mom and your mom and
Your mom and your mom
Your mom and your mom and
Your mom and your mom and
Your mom and your mom and
Your mom and your mom
Yeah!