Misc Unsigned Bands - Left To Die - Penguins And Polarbears Chords & Tabs

 

Left To Die - Penguins And Polarbears Chords & Tabs

Misc Unsigned Bands Chords & Tabs

Version: 1 Type: Tab 0 ratings
1 star 2 stars 3 stars 4 stars 5 stars
comments

Left To Die - Penguins And Polarbears Tab

Tuning- drop d

THIS IS MY BAND FROM GREENWOOD SOUTH CAROLINA. WE JUST GOT SIGNED AND SOME PEOPLE
WANT TO KNOW HOW TO PLAY OUR SONGS SO I TABBED THIS OUT.
BRAD JUREN   LEFT TO DIE!
both guitars

|---------------------------------------------------------------------------|
|---------------------------------------------------------------------------|
|---------------------------------------------------------------------------|
|-------------------7-----------------6-5-3-------------------7-----6-5-3-1-|
|-------5-----0-7-8---8-7-------5-----6-5-3-------5-----0-7-8---8-7-6-5-3-1-|
|-0-5-6---6-5-------------0-5-6---6-5-6-5-3-0-5-6---6-5-------------6-5-3-1-|

guitar 1

|----------------------------------------------------------------------|
|----------------------------------------------------------------------|
|-----------------5-------------5-3-----------------5------------------|
|-000-000-000-000-x-000-000-000-x-x-000-000-000-000-x-000-000-000------|
|-000-000-000-000-3-000-000-000-3-1-000-000-000-000-3-000-000-000-5*---|
|-000-000-000-000---000-000-000-----000-000-000-000---000-000-000------|

guitar 2

|-----------------------------------------------------------------------------|
|-----------------------------------------------------------------------------|
|-----------------10-------------10-12-----------------10---------------------|
|-000-000-000-000-x--000-000-000-x---x-000-000-000-000-x--000-000-000-6-5-3-1-|
|-000-000-000-000-8--000-000-000-8--10-000-000-000-000-8--000-000-000-6-5-3-1-|
|-000-000-000-000----000-000-000-------000-000-000-000----000-000-000-6-5-3-1-|

guitar 1

|-----------------------------------------------------------------------------|
|-----------------------------------------------------------------------------|
|-7p0-0-10p0-0-9p0-12p0-10p0-9h10p9----7p0-0-10p0-0-9p0-14p0-12p0-10h12p10-12-|
|-----------------------------------10----------------------------------------|
|-----------------------------------------------------------------------------|
|-----------------------------------------------------------------------------|

|-----------------------------------------------------------------------------|
|-----------------------------------------------------------------------------|
|-7p0-0-10p0-0-9p0-12p0-10p0-9h10p9----7p0-0-10p0-0-9p0-141414121212101010999-|
|-----------------------------------10----------------------------------------|
|-----------------------------------------------------------------------------|
|-----------------------------------------------------------------------------|

guitar 2

|--------------------------|
|--------------------------|
|--------------------------|
|-0--------3----5----------|       (strum after first time)
|-0--------3----5----------|
|-0--------3----5----------|

both guitars
x3 then.........................this
|-----------------------------|-------------------------|
|-----------------------------|-------------------------|
|-----------------------------|-------------------------|
|-0-0-7h8p7--------8-7--------|-5-5-555-7-7-777-0-------|
|-0-0-------8---10-----8-7----|-5-5-555-7-7-777-0-------|
|-0-0---------0------------8-7|-5-5-555-7-7-777-0-------|
                                    xxx     xxx


guitar 2 (clean)
there is more to this part this is just the basic notes
|-----------------------------------------------------------------------|
|-----------------------------------------------------------------------|
|-----3-----3-----3-----3-----3-----------------------------------------|
|---3-----3-----3-----3-----3---3-----0-----0-----0-----0-----0---------|
|-1-----1-----1-----1-----1---------0-----0-----0-----0-----0---0-------|
|---------------------------------0-----0-----0-----0-----0-------------|
[ Tab from: http://www.guitartabs.cc/tabs/m/misc_unsigned_bands/left_to_die_penguins_and_polarbears_tab.html ]
|-------------------------------------------------------------------|
|-------------------------------------------------------------------|
|-----5-----5-----5-----5-----5-------------------------------------|
|---5-----5-----5-----5-----5---5-----3-----3---------2-----2-------|
|-3-----3-----3-----3-----3---------3-----3-----3---2-----2-----2---|
|---------------------------------3-----3-----3---2-----2-----2-----|

guitar 2 (part played under solo)

|-----------------------------------------------------|
|-----------------------------------------------------|
|-3---3---3---------------5---5---5-------------------|
|-3---3---3---0---0---0---5---5---5---3---3---2---2---|
|-1---1---1---0---0---0---3---3---3---3---3---2---2---|
|-------------0---0---0---------------3---3---2---2---|

guitar 1 (solo)

|------------------------------------------------------------------------|
|------------------------------------------------------------------------|
|----10b-9-9-10-10/12-10-9-9h10-9--------------9-10-10-12-10-9-10-10-9---|
|-/8------------------------------10-9-9-10-12---------------------------|
|------------------------------------------------------------------------|
|------------------------------------------------------------------------|

|----------------------------------------------------------------------------|
|-8-10-11-10-8-10-11-10-8-10-11-10-8-10-11-10--------------------------------|
|-------------------------------------------------10-----10---------10----10-|
|---------------------------------------------7-8----7-8----7-8-7-8----7-8---|
|----------------------------------------------------------------------------|
|----------------------------------------------------------------------------|

|--------------------------------------------------------------------------|
|-------------------------------------8b-8b-8b-6-6h8-/11-10-8-10-8---------|
|-----7-5-7-8-7-5-7-5-7-8-7-5-7-5-7-8------------------------------10-9-10-|
|-7-8----------------------------------------------------------------------|
|--------------------------------------------------------------------------|
|--------------------------------------------------------------------------|

|----------------------------------------------------------------------------|
|-------------------------------------------17-18-18/20-18-17-17h18-18-18-17-|
|-10/12-12/14-14/15-15/17-19b-19br-17-17h19----------------------------------|
|----------------------------------------------------------------------------|
|----------------------------------------------------------------------------|
|----------------------------------------------------------------------------|

|----------------------------------------------------------------------------|
|----------------------------------------------------------------------------|
|-19-17-16-16h17-16-------17-17h19-17-19-17-19-17-19-17-19-17-19-17-19-17-19-|
|-------------------17/19----------------------------------------------------|
|----------------------------------------------------------------------------|
|----------------------------------------------------------------------------|

|----------------------17-18-18/20-18-17-17h18-17h18p17----17----------------|
|-------------17-18-20----------------------------------20----20-18-17----17-|
|-17-19-17h19----------------------------------------------------------19----|
|----------------------------------------------------------------------------|
|----------------------------------------------------------------------------|
|----------------------------------------------------------------------------|

|----------------------------------------------------20-18-17----17----------|
|----------------------------------------------17-18----------20----20-18-17-|
|-19-17-16-16h17-16-------------------17-17h19-------------------------------|
|-------------------19-17-16-16h17h19----------------------------------------|
|----------------------------------------------------------------------------|
|----------------------------------------------------------------------------|

|-----------|
|-----------|
|-17 17/19--|
|-----------|
|-----------|
|-----------|

END!
Comments