Misc Unsigned Bands - Leaving Bend - Spider Meets Iceman Chords & Tabs

 

Leaving Bend - Spider Meets Iceman Chords & Tabs

Misc Unsigned Bands Chords & Tabs

Version: 1 Type: Tab 0 ratings
1 star 2 stars 3 stars 4 stars 5 stars
comments

Leaving Bend - Spider Meets Iceman Tab

   
-------------------------------------------------------------------------------			     
Spider Meets Iceman - LEAVING BEND
-------------------------------------------------------------------------------
Tabbed by:Electric Genius
Email:
[ Tab from: http://www.guitartabs.cc/tabs/m/misc_unsigned_bands/leaving_bend_spider_meets_iceman_tab.html ]
Tuning:eBGDAE
   intro: (distorted)
e|-------------------------------------------------|
B|-------------------------------------------------|
G|-7-7---6---6-6h7p6-------------------------------|
D|-7-7---7-7---------7-7-6--6-6h7p6----------------|
A|-5-5---5-----------7-7-7-------------------------|
E|-------------------5-5-5-------------------------|
     Riff verse x4 then to chorus
e|-------------------------------------------------|
B|-------------------------------------------------|
G|---------7-7-6---4-6-----------------------------|
D|-4-4-4-4-7-----7-----7-7-7-6-6-7s9-7-6-----------|
A|-4-4-4-4-5-----------7-7-7-7-----------7---------|
E|-2-2-2-2-------------5-5-5-5---------------------|
     Chorus x4                       4th x only 
e|------------------------}--------}------}--------|
B|------------------------}--------}------}--------|
G|------------------------}-4-4-4-4}-4s2--}--------|
D|-4-4-4-4-7-7-7-7-2-2-2-2}-4-4-4-4}-4s2--}--------|
A|-4-4-4-4-7-7-7-7-2-2-2-2}-2-2-2-2}-2s0--}--------|
E|-2-2-2-2-5-5-5-5-0-0-0-0}--------}------}--------|
      Solo:
e|-------------------------------------------------|
B|-------------------------------------------------|
G|------6h7p6-6h7p6-6h7p6--------------------4-----|
D|-4-4s7------------------7-764764764--4-6-7--6-4--|
A|-4----------------------------------7-----------7|
E|-2-----------------------------------------------|

e|-------------------------------------------------|
B|-------------------------------------------------|
G|--------------4----------------------------------|
D|-4-4s7-764764--74-767976---76-------------------4|
A|-4---------------7------979--7^r77776666555544444|
E|-2----------------------------------------------2|



| /  slide up
| \  slide down
| h  hammer-on
| p  pull-off
| ~  vibrato
| +  harmonic
| x  Mute note
Comments