Misc Unsigned Bands - Last Place Champions - Overraed Chords & Tabs

 

Last Place Champions - Overraed Chords & Tabs

Misc Unsigned Bands Chords & Tabs

Version: 1 Type: Tab 0 ratings
1 star 2 stars 3 stars 4 stars 5 stars
comments

Last Place Champions - Overraed Tab

   
-----------------------------------------------------------------------
                     overrated - last place champions
-----------------------------------------------------------------------
this is a new band who has been playing locally and everyone in s.c. loves them.

tabbed by: stutterfly
tuning: dropped d

|/ slide up
|\slide down
|h hammer
|p pull off
|x palm mute

This is a wicked awesome song so tell me how you like it!

intro

e|-----------------------------------------------------------------|
b|-----------------------------------------------------------------|
g|-----------------------------------------------------------------|
d|---6-------7-------6-------7--7-6-4------------------------------|
a|---4-------4-------4-------4--4-4-2------------------------------|
d|---4-4-4-4-4-4-4-4-4-4-4-4-4--4-4-2------------------------------|

[guitar 1] verse 1

e|-----------------------------------------------------------------|
b|-----------------------------------------------------------------|
g|-----------------------------------------------------------------| (x2)
d|--14-14-9-11--11--11----14-14-9-11\7--7-7-7-6-7\4----------------|
a|--12-12-7-9-------------12-12-7-9\-5--4-4-4-4-4\2----------------|
d|--12-12-7-9-------------12-12-7-9\-5--4-4-4-4-4\2----------------|

[guitar 2] verse 2
[ Tab from: http://www.guitartabs.cc/tabs/m/misc_unsigned_bands/last_place_champions_overraed_tab.html ]
e|--14-13--------------14-13---------------------------------------|
b|--------14-13-14-----------14-13-14-16-19-18---------------------|
g|-----------------15----------------------------------------------| (x3)
d|-----------------------------------------------------------------|
a|-----------------------------------------------------------------|
d|-----------------------------------------------------------------|

chorus

e|-----------------------------------------------------------------|
b|-----------------------------------------------------------------|
g|-----------------------------------------------------------------| (x4)
d|--6-2-4-4-4--6-2-4-4-4-------------------------------------------|
a|--4-0-2-2-2--4-0-2-2-2-------------------------------------------|
d|-----------------------------------------------------------------|

solo (guitar 1)

e|---------------------------------------------------------------------|
b|---------------------------------------------------------------------|
g|------7h9--7h9/11-11-9-7-9-11-18-18-16-15----------------------------|
d|--7h9-------------------------------------16-14-16/18-16-------------|
a|---------------------------------------------------------16-14-16-19-|
d|---------------------------------------------------------------------|

repeat the chorus then end with this

e|--6h7p6h7p6h7---6h7p6h7p6h7----------------------------------------|
b|--------------7-------------7--------------------------------------|
g|-------------------------------------------------------------------|
d|-------------------------------------------------------------------|
a|-------------------------------------------------------------------|
d|-------------------------------------------------------------------|

that's it.
Comments