Misc Unsigned Bands - Kreig - Set Me Free Chords & Tabs

 

Kreig - Set Me Free Chords & Tabs

Misc Unsigned Bands Chords & Tabs

Version: 1 Type: Tab 0 ratings
1 star 2 stars 3 stars 4 stars 5 stars
comments

Kreig - Set Me Free Tab

   
BAND:KREIG
SONG:SET ME FREE
I'K THE LEAD GUITARIST FROM KREIG. THIS SONG IS MAD
AND IT IS 100% RIHGT AND WHY WOULDN'T IT BE ITS OUR SONG.
I TABBED IT OUT FOR A FEW PEOPLE IT INCLUDES EVERY PART OF THE SONG INCLUDING
THE SOLO. SO HERE IT IS.



H-HAMMER ON
P-PULL OFF               GUITAR1=LEAD GUITAR
B-BEND                   GUITAR2=RHYTHM GUITAR 
R-RELEASE BEND
/-SLIDE UP
\-SLIDE DOWN        U.B-UNISION BEND
~~-VIBRATO          ...-PALM MUTE
X-MUFFLED STRINGS

                      SET ME FREE       
INTRO
GUITAR1    X3
e------------------------------------------------
B------------------------------------------------
G----------------------------------54------------
D-----9/10\9-77779--10-5555755-4444--54----------
A-777-------------10-----------------------------
E------------------------------------------------

GUITAR2 COMES IN ON SECOND TIME     X2
e------------------------------------------------
B------------------------------------------------
G-XXXX-XXXX-------77777--------------------------
D-XXXX-XXXX-22222-77777-22222-44444--------------
A-XXXX-XXXX-22222-55555-22222-44444--------------
E-XXXX-XXXX-00000-------00000-22222--------------


VERSE
GUITAR1
e------------------------------------------------
B------------------------------------------------
G---------------------77-7-77-7------------------
D-22-2-22-2-22-2-22-2-77-7-77-7-55-5-44-4--------
A-22-2-22-2-22-2-22-2-55-5-55-5-55-5-44-4--------
E-00-0-00-0-00-0-00-0-----------33-3-22-2--------
  ..   ..   ..   ..   ..   ..   ..   ..

CONTINUED
e------------------------------------------------
B------------------------------------------------
G---------------------77-7-77-7------------------
D-22-2-22-2-22-2-22-2-77-7-77-7-555-7-4----------
A-22-2-22-2-22-2-22-2-55-5-55-5-XXX-X-X----------
E-00-0-00-0-00-0-00-0-----------333/5\2----------
  ..   ..   ..   ..   ..   ..

CONTINUED
e-----------------------------------------------------------------
B-----------------------------------------------------------------
G----------------------------------7------7-----------------------
D------2------2------2-------------7------7-------5------4--------
A------2------2------2------2-5555-5-5555-5-------5------4--------
E-0000-0-0000-0-0000-0-0000-0---------------33333-3-2222-2--------
  ....   ....   ....   ....   ....   ....   .....   ....

CONTINUED
e-----------------------------------------------------------------
B-----------------------------------------------------------------
G----------------------------------7------7-----------------------
D------2------2------2-------------7------7-555-444---------------
A------2------2------2------2-5555-5-5555-5-555-444---------------
E-0000-0-0000-0-0000-0-0000-0---------------333-222---------------
  ....   ....   ....   ....   ....   ....

GUITAR2    PLAYED THROUGHOUT VERSE
e-----------------------------------------------------------------
B-----------------------------------------------------------------
G-99-9-99-9-99-9-99-9-77-7-77-7-----------------------------------
D-99-9-99-9-99-9-99-9-77-7-77-7-55-5-44-4-------------------------
A-77-7-77-7-77-7-77-7-55-5-55-5-55-5-44-4-------------------------
E-------------------------------33-3-22-2-------------------------

  ..   ..   ..   ..   ..   ..   ..   ..
CHORUS  BOTH GUITARS   X4
e------------------------------------ ON THE 4TH TIME OF THE CHORUS DONT
B------------------------------------ PLAY THE BUNCH OF C CORDS INSTEAD PLAY
G-999999--------777777-555555-------- THIS: G -----9999------------
D-999999-555555-777777-555555--------       D -----9999------------
A-777777-555555-555555-333333--------       A -----7777------------
E--------333333----------------------


INTRO BOTH GUITARS X2
VERSE 
CHORUS

SOLO:   BEHIND THE SOLO THE RHYTHM PLAYS THE CHORUS RIFF X4
                              ~~~
e-----------------------15/17-15-----------------------------------------
B-15B-15-12-12H15P12-12----------15B-15-12-12H15P12H15P12H15P12H15P12----
G------------------------------------------------------------------------
D------------------------------------------------------------------------
A------------------------------------------------------------------------
E------------------------------------------------------------------------
[ Tab from: http://www.guitartabs.cc/tabs/m/misc_unsigned_bands/kreig_set_me_free_tab.html ]
CONTINUED      ~~~~                                   ~~          ~~
e-15/17-15-17B-17BR-17P15--15-17P15--------------------------------      
B------------------------17--------17-15-1717171717/1917-15H17P15-17\5/17--
G--------------------------------------------------------------------------
D--------------------------------------------------------------------------
A--------------------------------------------------------------------------
E--------------------------------------------------------------------------

CONTINUED
  ~~                                     ~~ U.B      U.B      U.B
e-------------------------------------------12121212-14141414-15151515--
B-15-15H17P15-15H17P15-15H17P15-15H17P15-17-15-------17-------18--------
G-----------------------------------------------------------------------
D-----------------------------------------------------------------------
A-----------------------------------------------------------------------
E-----------------------------------------------------------------------

CONTINUED
  U.B         ~~          ~~ ~~             U.B  ~~
e-17171717--------------------------------------------------------------
B-20-------17-15H17P15-17-15-17-15-14-12-14-10---10----12-10-12-10-12---
G-------------------------------------------12BR----12-12---------------
D-----------------------------------------------------------------------
A-----------------------------------------------------------------------
E-----------------------------------------------------------------------

CONTINUED
                      ~~
e------------15/17-15-----------
B-------1215----------17--------
G-12/15-------------------------
D-------------------------------
A-------------------------------
E-------------------------------

DOUBLE CHORUS
e-----------------------------------------------
B-----------------------------------------------
G-999999--------777777-555555---999999--------7-
D-999999-555555-777777-555555---999999-555555-7-PUASE THEN DRUM FILL
A-777777-555555-555555-333333---777777-555555-5-
E--------333333------------------------333333---

CONTINUED

e------------------------------------------------------------
B------------------------------------------------------------
G-999999--------777777-555555---999999--------777777-555555--
D-999999-555555-777777-555555---999999-555555-777777-555555--
A-777777-555555-555555-333333---777777-555555-555555-333333--
E--------333333------------------------333333----------------


THESE TWO RIFFS ARE PLAYED OVER THE LAST CHORUS

X2
e---------------------------------------------------------------
B---------------------------------------------------------------
G-99999-77777-121212-11111-99999-X-99999-77777-121212-11111--9--
D-XXXXX-XXXXX-XXXXXX-X-X-X-XXXXX-X-XXXXX-XXXXX-XXXXXX-X-X-X--X--
A-77777-55555-101010-9-9-9-77777-X-77777-55555-101010-9-9-9--7--
E---------------------------------------------------------------

X1
e-----------15/17-15---------------15/17-15-------
B-15B-15-12----------17--15B-15-12----------15-17-
G-------------------------------------------------
D-------------------------------------------------
A-------------------------------------------------
E-------------------------------------------------


GUITAR 1 END ON
       U.B
e------12----------
B------15----------
G------------------    HOLD THESE NOTES AND FADE
D------------------
A------------------
E------------------


GUITAR 2 END ON
e------------------
B------------------
G------------------    HOLD THIS CHORD AND FADE
D------2-----------
A------2-----------
E------0-----------



CHORUS WORDS
...BREATH AND SET ME FREE
LET ME BREATH AND SET ME FREE
     (and set me free)
LET ME BREATH AND SET ME FREE   words in brackets '()' are backing 
     (and set me free)                    backing vocals.
LET ME BREATH AND SET ME FREE
     (and set me free)  

HEY THEY ARE THE ONLY WORDS IN THIS SONG THAT I KNOW
THATS PRETTY STUPID CONSIDERING ITS OUR SONG.
IF ANY OF THE PEOPLE WE KNOW OR ANY PEOPLE WE DON'T KNOW  USE THIS TAB PLEASE GO
TO OUR WEBSITE ON WWW.KREIG.CJB.NET/ AND TELL US IN THE GEUSTBOOK HOW YOU WENT
WITH THIS TAB AND PRETTY SOON YOU WILL BE ABLE TO LISTEN TO IT ON OUR WEBSITE
WHEN WE GET AN MP3 OF IT.
               ANYWAY CHEERIO

                           KREIG
                        METALLICA      
                          NOFX
                       THE OFFSPRING
                         AND AC/DC
                           RULE!!!!
Comments