Misc Unsigned Bands - Junesque - The Bubbly Brook Chords & Tabs

 

Junesque - The Bubbly Brook Chords & Tabs

Misc Unsigned Bands Chords & Tabs

Version: 1 Type: Tab 0 ratings
1 star 2 stars 3 stars 4 stars 5 stars
comments

Junesque - The Bubbly Brook Tab

Junesque is a new band...duh
www.junesque.tk Go there, you will see.

I'm pretty sure its right.

Intro(clean)

Guitar 1
e--------------------------------------------------------------------------|
b--------------------------------------------------------------------------|
g----------------------9-9-9-9-11-11-11-11---------------------------------|
d-9-9-9-9-11-11-11-11--0-0-0-0--0--0--0--0----------------------------6x---|
a-0-0-0-0--0--0--0--0------------------------------------------------------|
e--------------------------------------------------------------------------|

Guitar 2 comes in after Guitar 1 plays twice
e--------------------------------------------------------------------------|
b--------------------------------------------------------------------------|
g-------9-7-6h7-6----------------------------------------------------------|
d-9-9-7-----------9-9-7-6-7-------------------------------------------4x---|
a-0---------------0--------------------------------------------------------|
e--------------------------------------------------------------------------|

Verse(clean)

Guitar 1
e--------------------------------------------------------------------------|
b--------------------------------------------------------------------------|
g--------------------------------------------------------------------------|
d-11-11-11-14-14-14-11-11-11-16-16-16-11-11-11-14-14-14-11-11-11-16-16-16--|
a--0--0--0--0--0--0--0--0--0--0--0--0--0--0--0--0--0--0--0--0--0--0--0--0--|
e--------------------------------------------------------------------------|
[ Tab from: http://www.guitartabs.cc/tabs/m/misc_unsigned_bands/junesque_the_bubbly_brook_tab.html ]
e--------------------------------------------------------------------------|
b--------------------------------------------------------------------------|
g--------------------------------------------------------------------------|
d--------------------------------------------------------------------------|
a-11-11-11-14-14-14-11-11-11-16-16-16-11-11-11-14-14-14-11-11-11-16-16-16--|
e--0--0--0--0--0--0--0--0--0--0--0--0--0--0--0--0--0--0--0--0--0--0--0--0--|

Chorus(distorted)

Guitar 2
e--0--0--0--0--0--0--0--0--------------------------------------------------|
b-10-10-10-10-10-10-10-10--------------------------------------------------|
g--0--0--0--0--0--0--0--0--------------------------------------------------|
d-11-11-11-11-11-11-11-11--11-11-11-11-11-11-11-11--------------------4x---|
a-12-12-12-12-12-12-12-12--12-12-12-12-12-12-12-12-------------------------|
e--------------------------10-10-10-10-10-10-10-10-------------------------|

Bridge(clean)

Guitar 2
e--------------------------------------------------------------------------|
b--------------------------------------------------------------------------|
g---9-7----------------9-7----------------9-7----------------9-7-----------|
d-------8-8-9p7------------8-8-7h9------------8-8-9p7------------11---2x---|
a-9-------------9-7-9--------------9-7-9--------------9-7-9----------------|
e--------------------------------------------------------------------------|

e--------------------------------------------------------------------------|
b--------------------------------------------------------------------------|
g--------------------------------------------------------------------------|
d-9------9-----------------------------------------------------------------|
a---10--10-----------------------------------------------------------------|
e--------------------------------------------------------------------------|

Outro(distorted)

Guitars 1 & 2
e--0-----------------------------------------------------------------------|
b-10-----------------------------------------------------------------------|
g--0-----------------------------------------------------------------------|
d-11-----------------------------------------------------------------------|
a-12-----------------------------------------------------------------------|
e--------------------------------------------------------------------------|

Order:
Intro
Verse
Chorus
Verse
Chorus
Bridge
Chorusx2
Outro
Comments