Misc Unsigned Bands - Jewish Ferrets - Shittin Manhole Hobo Chords & Tabs

 

Jewish Ferrets - Shittin Manhole Hobo Chords & Tabs

Misc Unsigned Bands Chords & Tabs

Version: 1 Type: Tab 0 ratings
1 star 2 stars 3 stars 4 stars 5 stars
comments

Jewish Ferrets - Shittin Manhole Hobo Tab

-----------------------------------------------------------------------------
			The jewish Ferrets
                      *Shittin Manhole Hobo*
-----------------------------------------------------------------------------
Tabbed by:David
Email:wetwizard@juno.com
www.jewishferrets.tk

Tuning:EADGBe

e|----------------------------------------------------------|----------------|
B|----------------------------------------------------------|----------------|
G|----------------------------------------------------------|----------------|
D|----------------------------------------------------------|-repeat 8x------|
A|------------------------------5--7--555--77--5--7--555--7-|----------------|
E|-5--7--555--77--5--7--555--7--5--7--555--77--5--7--555--7-|----------------|

(play once clean, then start over w/heavy distortion + lyrics) (vibrato on last)
[ Tab from: http://www.guitartabs.cc/tabs/m/misc_unsigned_bands/jewish_ferrets_shittin_manhole_hobo_tab.html ]
e|---------------------------------------------------------------------------|
B|---------------------------------------------------------------------------|
G|---------------------------------------------------------------------------|
D|---------------------------------------------------------------------------|
A|-555--7--------------------------------------------------------------------|
E|-555--7///12\\\5---(slow W/steady picking then start over)-----------------|

  (slide At "His eyes get tearyyy")

e|-----5-3---------5-3--------------------------------------------------------|
B|--55-----345--55-----321----------------------------------------------------|
G|----------------------------------------------------------------------------|
D|----------------------------------------------------------------------------|
A|----------------------------------------------------------------------------|
E|----------------------------------------------------------------------------|
   (solo) (slow)

Lyrics:

Shittin' Manhole Hobo

The shittin'manhole hobo, he lives on the streets

ransoming his door-shittin' to get what he he eats.

He wanders through town, all constipated and dreary,

and as he takes his monjo, his eyes get tearyyy....

He ain't got no sex, nobody to impress,

just him and his 40, and his door-shittin' business.

So step outside, and see the monjo that he left,

Don't try to get revenge, just be glad that he left.


| /  slide up
| \  slide down
=============================================================================
Comments