Misc Unsigned Bands - Interstellar - A Bullet In The Night Chords & Tabs

 

Interstellar - A Bullet In The Night Chords & Tabs

Misc Unsigned Bands Chords & Tabs

Version: 1 Type: Tab 0 ratings
1 star 2 stars 3 stars 4 stars 5 stars
comments

Interstellar - A Bullet In The Night Tab

   
-------------------------------------------------------------------------------
			     A Bullet In The Night - Interstellar
-------------------------------------------------------------------------------

Tabbed by: alex
Email: buckrogers87@hotmail.com

Tuning: Standard EADGBe

Intro:

e|---------------------------------------------------------------------------------------|
B|---------------------------------------------------------------------------------------|
G|-------------2b3r2--3p2p0--------2b3r2--3p2p0--------5b6r5--6r5r3--------5b6r5--6r5r3--|
D|-----------2-------------------2-------------------5-------------------5---------------|
A|---------2-------------------2-------------------5-------------------5-----------------|
E|--12\--0-------------------0-------------------3-------------------3-------------------|

e|----------------------------------------------------------------------------------|
B|----------------------------------------------------------------------------------|
G|--------2b3r2--3p2p0--------2b3r2--3p2p0--------5b6r5--6r5r3--------5b6r5--6r5r3--|
D|------2-------------------2-------------------5-------------------5---------------|
A|----2-------------------2-------------------5-------------------5-----------------|
E|--0-------------------0-------------------3-------------------3-------------------|
                                                                        [   w/ distortion  ]
e|-----------------------------------------------------------------------9-9-9-9-9-8-6~--6/\--|
B|------------------h5------------------h3------------------h8--------------------------------|
G|--------2b3r2--3p2----------2b3r2--3p2----------5b6r5--6p5----------5--6-6-6-6-6-5-3~--3/\--|
D|------2-------------------2-------------------5-------------------5-------------------------|
A|----2-------------------2-------------------5-------------------5---------------------------|
E|--0-------------------0-------------------3-------------------3-----------------------------|

Verse 1:

e|----------------------------------------------------------------------------------|
B|----------------------------------------------------------------------------------|
G|--------2b3r2--3p2p0--------2b3r2--3p2p0--------5b6r5--6r5r3--------5b6r5--6r5r3--|
D|------2-------------------2-------------------5-------------------5---------------|
A|----2-------------------2-------------------5-------------------5-----------------|
E|--0-------------------0-------------------3-------------------3-------------------|
    How lonely...			  (are) you feeling...
e|----------------------------------------------------------------------------------|
B|----------------------------------------------------------------------------------|
G|--------2b3r2--3p2p0--------2b3r2--3p2p0--------5b6r5--6r5r3--------5b6r5--6r5r3--|
D|------2-------------------2-------------------5-------------------5---------------|
A|----2-------------------2-------------------5-------------------5-----------------|
E|--0-------------------0-------------------3-------------------3-------------------|
    so lost...				   inside...
e|----------------------------------------------------------------------------------|
B|----------------------------------------------------------------------------------|
G|--------2b3r2--3p2p0--------2b3r2--3p2p0--------5b6r5--6r5r3--------5b6r5--6r5r3--|
D|------2-------------------2-------------------5-------------------5---------------|
A|----2-------------------2-------------------5-------------------5-----------------|
E|--0-------------------0-------------------3-------------------3-------------------|
   you're searching...			   for meaning...
e|----------------------------------------------------------------------------------|
B|----------------------------------------------------------------------------------|
G|--------2b3r2--3p2p0--------2b3r2--3p2p0--------5b6r5--6r5r3--------5b6r5--6r5r3--|
D|------2-------------------2-------------------5-------------------5---------------|
A|----2-------------------2-------------------5-------------------5-----------------|
E|--0-------------------0-------------------3-------------------3-------------------|
   to why...				  you cry...
                                                                        [w/ distortion]
e|-----------------------------------------------------------------------9-9-9-9-9-8-6~--|
B|------------------h5------------------h3------------------h8---------------------------|
G|--------2b3r2--3p2----------2b3r2--3p2----------5b6r5--6p5----------5--6-6-6-6-6-5-3~--|
D|------2-------------------2-------------------5-------------------5--------------------|
A|----2-------------------2-------------------5-------------------5----------------------|
E|--0-------------------0-------------------3-------------------3------------------------|

Chorus: (w/ distortion)
										and i...
e|------------------------------------------------------------------------------------------------------------|
B|--0--0-0-0--0-0-0--0-0-0--3--3-3-3--3-3-3--3-3-3--5--5-5-5--5-5-5--5-5-5--8---8--8--8---8--8--8---8--8--8---|
G|--0--0-0-0--0-0-0--0-0-0--4--4-4-4--4-4-4--4-4-4--6--6-6-6--6-6-6--6-6-6--9---9--9--9---12-12-12--12-12-12--|
D|--2--2-2-2--2-2-2--2-2-2--5--5-5-5--5-5-5--5-5-5--7--7-7-7--7-7-7--7-7-7--10--10-10-10--10-10-10--10-10-10--|
A|--2--2-2-2--2-2-2--2-2-2--5--5-5-5--5-5-5--5-5-5--7--7-7-7--7-7-7--7-7-7--10--10-10-10--10-10-10--10-10-10--|
E|--0--0-0-0--0-0-0--0-0-0--3--3-3-3--3-3-3--3-3-3--5--5-5-5--5-5-5--5-5-5--8---8--8--8---8--8--8---8--8--8---|
		 i watch you fall	i hear you cry		fall down and die...
e|------------------------------------------------------------------------------------------------------------|
B|--0--0-0-0--0-0-0--0-0-0--3--3-3-3--3-3-3--3-3-3--5--5-5-5--5-5-5--5-5-5--8---8--8--8---8--8--8---8--8--8---|
G|--0--0-0-0--0-0-0--0-0-0--4--4-4-4--4-4-4--4-4-4--6--6-6-6--6-6-6--6-6-6--9---9--9--9---12-12-12--12-12-12--|
D|--2--2-2-2--2-2-2--2-2-2--5--5-5-5--5-5-5--5-5-5--7--7-7-7--7-7-7--7-7-7--10--10-10-10--10-10-10--10-10-10--|
A|--2--2-2-2--2-2-2--2-2-2--5--5-5-5--5-5-5--5-5-5--7--7-7-7--7-7-7--7-7-7--10--10-10-10--10-10-10--10-10-10--|
E|--0--0-0-0--0-0-0--0-0-0--3--3-3-3--3-3-3--3-3-3--5--5-5-5--5-5-5--5-5-5--8---8--8--8---8--8--8---8--8--8---|
    i..		 i watch you fall	i hear you cry		fall down and die...

e|--18-18-18-18-18-17-15~--15/\--|
B|-------------------------------|
G|--15-15-15-15-15-14-12~--12/\--|
D|-------------------------------|
A|-------------------------------|
E|-------------------------------|

Verse 2:
[ Tab from: http://www.guitartabs.cc/tabs/m/misc_unsigned_bands/interstellar_a_bullet_in_the_night_tab.html ]
e|----------------------------------------------------------------------------------|
B|----------------------------------------------------------------------------------|
G|--------2b3r2--3p2p0--------2b3r2--3p2p0--------5b6r5--6r5r3--------5b6r5--6r5r3--|
D|------2-------------------2-------------------5-------------------5---------------|
A|----2-------------------2-------------------5-------------------5-----------------|
E|--0-------------------0-------------------3-------------------3-------------------|
    You're lonely...			    not feeling...
e|----------------------------------------------------------------------------------|
B|----------------------------------------------------------------------------------|
G|--------2b3r2--3p2p0--------2b3r2--3p2p0--------5b6r5--6r5r3--------5b6r5--6r5r3--|
D|------2-------------------2-------------------5-------------------5---------------|
A|----2-------------------2-------------------5-------------------5-----------------|
E|--0-------------------0-------------------3-------------------3-------------------|
    so well...				   inside...
e|----------------------------------------------------------------------------------|
B|----------------------------------------------------------------------------------|
G|--------2b3r2--3p2p0--------2b3r2--3p2p0--------5b6r5--6r5r3--------5b6r5--6r5r3--|
D|------2-------------------2-------------------5-------------------5---------------|
A|----2-------------------2-------------------5-------------------5-----------------|
E|--0-------------------0-------------------3-------------------3-------------------|
   you'd got him...			   in your eyes...
e|----------------------------------------------------------------------------------|
B|----------------------------------------------------------------------------------|
G|--------2b3r2--3p2p0--------2b3r2--3p2p0--------5b6r5--6r5r3--------5b6r5--6r5r3--|
D|------2-------------------2-------------------5-------------------5---------------|
A|----2-------------------2-------------------5-------------------5-----------------|
E|--0-------------------0-------------------3-------------------3-------------------|
   but he slipped...				  too far...
                                                                        [w/ distortion]
e|-----------------------------------------------------------------------9-9-9-9-9-8-6~--|
B|------------------h5------------------h3------------------h8---------------------------|
G|--------2b3r2--3p2----------2b3r2--3p2----------5b6r5--6p5----------5--6-6-6-6-6-5-3~--|
D|------2-------------------2-------------------5-------------------5--------------------|
A|----2-------------------2-------------------5-------------------5----------------------|
E|--0-------------------0-------------------3-------------------3------------------------|
										  so
Chorus: (w/ distortion)

e|------------------------------------------------------------------------------------------------------------|
B|--0--0-0-0--0-0-0--0-0-0--3--3-3-3--3-3-3--3-3-3--5--5-5-5--5-5-5--5-5-5--8---8--8--8---8--8--8---8--8--8---|
G|--0--0-0-0--0-0-0--0-0-0--4--4-4-4--4-4-4--4-4-4--6--6-6-6--6-6-6--6-6-6--9---9--9--9---12-12-12--12-12-12--|
D|--2--2-2-2--2-2-2--2-2-2--5--5-5-5--5-5-5--5-5-5--7--7-7-7--7-7-7--7-7-7--10--10-10-10--10-10-10--10-10-10--|
A|--2--2-2-2--2-2-2--2-2-2--5--5-5-5--5-5-5--5-5-5--7--7-7-7--7-7-7--7-7-7--10--10-10-10--10-10-10--10-10-10--|
E|--0--0-0-0--0-0-0--0-0-0--3--3-3-3--3-3-3--3-3-3--5--5-5-5--5-5-5--5-5-5--8---8--8--8---8--8--8---8--8--8---|
    i...	 i watch you fall	i hear you cry		fall down and die...
e|------------------------------------------------------------------------------------------------------------|
B|--0--0-0-0--0-0-0--0-0-0--3--3-3-3--3-3-3--3-3-3--5--5-5-5--5-5-5--5-5-5--8---8--8--8---8--8--8---8--8--8---|
G|--0--0-0-0--0-0-0--0-0-0--4--4-4-4--4-4-4--4-4-4--6--6-6-6--6-6-6--6-6-6--9---9--9--9---12-12-12--12-12-12--|
D|--2--2-2-2--2-2-2--2-2-2--5--5-5-5--5-5-5--5-5-5--7--7-7-7--7-7-7--7-7-7--10--10-10-10--10-10-10--10-10-10--|
A|--2--2-2-2--2-2-2--2-2-2--5--5-5-5--5-5-5--5-5-5--7--7-7-7--7-7-7--7-7-7--10--10-10-10--10-10-10--10-10-10--|
E|--0--0-0-0--0-0-0--0-0-0--3--3-3-3--3-3-3--3-3-3--5--5-5-5--5-5-5--5-5-5--8---8--8--8---8--8--8---8--8--8---|
    i..		 i watch you fall	i hear you cry		fall down and die...

e|--18-18-18-18-18-17-15~--15/\--|
B|-------------------------------|
G|--15-15-15-15-15-14-12~--12/\--|
D|-------------------------------|
A|-------------------------------|
E|-------------------------------|

Solo: (w/ distortion and overdrive)

e|-------------------------------------------------------------------------|
B|---------------------------------------9-9b11r9-9~---15-19-19b21r19-17~--|
G|--7-9-9b11r9-9~---------------0~----7--9-9b11r9-9~-----------------------|
D|-------------------7-10-12-14\2~-----------------------------------------|
A|------------------------------2~-----------------------------------------|
E|------------------------------0~-----------------------------------------|

e|------------------------------------------------------------------|
B|--19-22-15--15h17\12--12------------------------------------------|
G|-------------------------14-12----12-14p12-14b16--14b16-14r12-----|
D|-------------------------------14-----------------------------14--|
A|------------------------------------------------------------------|
E|------------------------------------------------------------------|

e|-----------------------------------|
B|-----------------------------------|
G|--------------------------------0--|
D|--14~-12~-9~-7h9-9~---9-7-10-12\2--|
A|--------------------------------2--|
E|--------------------------------0--|

Outro: (w/ distortion and overdrive)

e|---------------------------------------------------------------------|
B|---------------------------------------------------------------------|
G|---------------------------------------------------------------------|
D|---------------------------------------------------------------------|
A|--2/9\2/7~---5-5-5\2/9~\7~---12-12-10~-9h10p9~---12-12-14-17h19-19~--|
E|--0/0\0/0~---0-0-0\0/0~\0~---0--0--0~--0---------0--0--0--0-----0~---|

e|------------------------------------------------------------------|
B|------------------------------------------------------------------|
G|------------------------------------------------------------------|
D|------------------------------------------------------------------|
A|--19-22-19-17h19-14h17-12h14-10h12-7h10-5h7-2h5-2p0~~--7~~~-------|
E|--0--0--0--0-----0-----0-----0-----0----0---0---0~~----0~~~-------|

| /  slide up
| \  slide down
| h  hammer-on
| p  pull-off
| ~  vibrato
| +  harmonic
| x  Mute note
===============================================================================
Comments