Misc Unsigned Bands - Illegal Left - Bubbles Chords & Tabs

 

Illegal Left - Bubbles Chords & Tabs

Misc Unsigned Bands Chords & Tabs

Version: 1 Type: Tab 0 ratings
1 star 2 stars 3 stars 4 stars 5 stars
comments

Illegal Left - Bubbles Tab

   
Opening Riff (lead):
E--3-1-3--3-1-3--6-4-6--6-4-6
B-1------1------4------4-----
G----------------------------
D----------------------------
A----------------------------
E----------------------------
Play this 4x

Opening Riff (rhythm):
E------------
B------------
G------------
D--10--------
A--10--------
E--8--------- 
Play this at the beginning of every riff 1 (4x)


Verse Part A: (4x)
E---------------
B---------------
G---------------
D--10-10--15-15-
A--10-10--15-15-
E--8--8---13-13-
[ Tab from: http://www.guitartabs.cc/tabs/m/misc_unsigned_bands/illegal_left_bubbles_tab.html ]
Verse Part B: (4x)
E------------------------------------
B------------------------------------
G------------------------------------
D--10-10--10-10-10--15-15--15-15-15--
A--10-10--10-10-10--15-15--15-15-15--
E--8--8---8--8--8---13-13--13-13-13--

Chorus: (4x)
E-------------------------------
B-------------------------------
G-------------------------------
D--10-10--10-10-10--3-3--3-3-3--
A--10-10--10-10-10--3-3--3-3-3--
E--8--8---8--8--8---1-1--1-1-1--

That's it.

Here's the order:
1. Intro
2. Verse Part B
3. Verse Part A
4. Verse Part B
5. Chorus
6. Verse Part B
7. Verse Part A
8. Verse Part B
9. Chorus
10. Intro
11. Verse Part B
12. Chorus

End on 
E-----
B-----
G-----
D--10-
A--10-
E--8--

Good song.

http://www.illegalleft.wsmcafe.com
Comments