Misc Unsigned Bands - Hope All Is Well - Dream Chords & Tabs

 

Hope All Is Well - Dream Chords & Tabs

Misc Unsigned Bands Chords & Tabs

Version: 1 Type: Tab 0 ratings
1 star 2 stars 3 stars 4 stars 5 stars
comments

Hope All Is Well - Dream Tab

Hope All Is Well is a local band from Hillsboro Oregon. you can check em out at
www.hopealliswell.com or on myspace. They are composed of two brother guitarists
(Chris and Ryan Doucet), bass player Zane Fischer, and drummer Jeff Bond. they
play some gigs at places in portland like the meow meow.


-------------------------------------------------------------------------------
			     Dream - Hope All Is Well                      
------------------------------------------------------------------------------
Tabbed by: Mikey
Email: Bringbackthebassline@gmail.com

Tuning: Standard
[ Tab from: http://www.guitartabs.cc/tabs/m/misc_unsigned_bands/hope_all_is_well_dream_tab.html ]
e|---------------------------------------------------------------------------|
B|---------------------------------0-----------------------------------------|
G|---2-----2----2---2--------2--2--2-----2-----------------------------------| repeat 2x
D|-00---00-------------------0-----0-----------------------------------------|
A|------------00---0-0----22---2-2-2----2-2----------------------------------|
E|---------------------------------------------------------------------------|

e|---------------------------------------------------------------------------|
B|---------------------------0-----------------------------------------------|
G|---2---2----2---2----2--2--2-----2-----------------------------------------| repeat 2x
D|---0---0----0---0----0-----0-----------------------------------------------|
A|-------------------00--0-0-2----2-2----------------------------------------|
E|-22---2-2-33---3-----------------------------------------------------------|

Thats all for now, I'll put the rest of the song up later

Hope All Is Well rocks!!!
Comments