Misc Unsigned Bands - Goregoat - Pillage Chords & Tabs

 

Goregoat - Pillage Chords & Tabs

Misc Unsigned Bands Chords & Tabs

Version: 1 Type: Tab 0 ratings
1 star 2 stars 3 stars 4 stars 5 stars
comments

Goregoat - Pillage Tab

   
#----------------------------------PLEASE NOTE---------------------------------#
#This file is the author's own work and represents their interpretation of the #
#song. You may only use this file for private study, scholarship, or research. #
#------------------------------------------------------------------------------#

PILLAGE
As recorded by Goregoat



Transcribed by Jason Homran

 Words and Music by Jason Homran
Arranged by Jason Homran
 

Gtr I (E A D G B E) - 'Untitled'


    Gtr I
    S S S S S S S S S S S S S S S S   S S S S S S S S S S S S S S S S   4x
||--7-7-7-7-7-7-7-7-7-7-7-7-7-7-7-7-|-6-6-6-6-6-6-6-6-6-6-6-6-6-6-6-6---||
||o-8-8-8-8-8-8-8-8-8-8-8-8-8-8-8-8-|-7-7-7-7-7-7-7-7-7-7-7-7-7-7-7-7--o||
||--9-9-9-9-9-9-9-9-9-9-9-9-9-9-9-9-|-8-8-8-8-8-8-8-8-8-8-8-8-8-8-8-8---||
||--9-9-9-9-9-9-9-9-9-9-9-9-9-9-9-9-|-8-8-8-8-8-8-8-8-8-8-8-8-8-8-8-8---||
||o-7-7-7-7-7-7-7-7-7-7-7-7-7-7-7-7-|-6-6-6-6-6-6-6-6-6-6-6-6-6-6-6-6--o||
||--0-0-0-0-0-0-0-0-0-0-0-0-0-0-0-0-|-----------------------------------||


  S S E S S E E E S S E   S S E E E S S E S S E   E E
|-----------------------|-----------------------|-----|
|-----------------------|-----------------------|-----|
|-------------4-3-----3-|-----------------------|-4-3-|
|-2-2-3-2-2-3-4-3-2-2-3-|-2-2-3-4-3-2-2-3-2-2-3-|-4-3-|
|-2-2-3-2-2-3-2-1-2-2-1-|-2-2-3-4-3-2-2-3-2-2-3-|-2-1-|
|-0-0-1-0-0-1-----0-0---|-0-0-1-2-1-0-0-1-0-0-1-|-----|


  S S S S S S S S S S S S S S S S   S S S S S S S S S S S S S S S S
|-7-7-7-7-7-7-7-7-7-7-7-7-7-7-7-7-|-6-6-6-6-6-6-6-6-6-6-6-6-6-6-6-6-|
|-8-8-8-8-8-8-8-8-8-8-8-8-8-8-8-8-|-7-7-7-7-7-7-7-7-7-7-7-7-7-7-7-7-|
|-9-9-9-9-9-9-9-9-9-9-9-9-9-9-9-9-|-8-8-8-8-8-8-8-8-8-8-8-8-8-8-8-8-|
|-9-9-9-9-9-9-9-9-9-9-9-9-9-9-9-9-|-8-8-8-8-8-8-8-8-8-8-8-8-8-8-8-8-|
|-7-7-7-7-7-7-7-7-7-7-7-7-7-7-7-7-|-6-6-6-6-6-6-6-6-6-6-6-6-6-6-6-6-|
|-0-0-0-0-0-0-0-0-0-0-0-0-0-0-0-0-|---------------------------------|


  S S S S S S S S S S S S S S S S   S S S S S S S S S S S S S S S S
|-7-7-7-7-7-7-7-7-7-7-7-7-7-7-7-7-|-6-6-6-6-6-6-6-6-6-6-6-6-6-6-6-6-|
|-8-8-8-8-8-8-8-8-8-8-8-8-8-8-8-8-|-7-7-7-7-7-7-7-7-7-7-7-7-7-7-7-7-|
|-9-9-9-9-9-9-9-9-9-9-9-9-9-9-9-9-|-8-8-8-8-8-8-8-8-8-8-8-8-8-8-8-8-|
|-9-9-9-9-9-9-9-9-9-9-9-9-9-9-9-9-|-8-8-8-8-8-8-8-8-8-8-8-8-8-8-8-8-|
|-7-7-7-7-7-7-7-7-7-7-7-7-7-7-7-7-|-6-6-6-6-6-6-6-6-6-6-6-6-6-6-6-6-|
|-0-0-0-0-0-0-0-0-0-0-0-0-0-0-0-0-|---------------------------------|


  S S S S S S S S S S S S S S S S   S S S S S S S S S S S S S S S S
|-7-7-7-7-7-7-7-7-7-7-7-7-7-7-7-7-|-6-6-6-6-6-6-6-6-6-6-6-6-6-6-6-6-|
|-8-8-8-8-8-8-8-8-8-8-8-8-8-8-8-8-|-7-7-7-7-7-7-7-7-7-7-7-7-7-7-7-7-|
|-9-9-9-9-9-9-9-9-9-9-9-9-9-9-9-9-|-8-8-8-8-8-8-8-8-8-8-8-8-8-8-8-8-|
|-9-9-9-9-9-9-9-9-9-9-9-9-9-9-9-9-|-8-8-8-8-8-8-8-8-8-8-8-8-8-8-8-8-|
|-7-7-7-7-7-7-7-7-7-7-7-7-7-7-7-7-|-6-6-6-6-6-6-6-6-6-6-6-6-6-6-6-6-|
|-0-0-0-0-0-0-0-0-0-0-0-0-0-0-0-0-|---------------------------------|


  S S S S S S S S S S S S S S S S   S S S S S S S S S S S S S S S S
|-7-7-7-7-7-7-7-7-7-7-7-7-7-7-7-7-|-6-6-6-6-6-6-6-6-6-6-6-6-6-6-6-6-|
|-8-8-8-8-8-8-8-8-8-8-8-8-8-8-8-8-|-7-7-7-7-7-7-7-7-7-7-7-7-7-7-7-7-|
|-9-9-9-9-9-9-9-9-9-9-9-9-9-9-9-9-|-8-8-8-8-8-8-8-8-8-8-8-8-8-8-8-8-|
|-9-9-9-9-9-9-9-9-9-9-9-9-9-9-9-9-|-8-8-8-8-8-8-8-8-8-8-8-8-8-8-8-8-|
|-7-7-7-7-7-7-7-7-7-7-7-7-7-7-7-7-|-6-6-6-6-6-6-6-6-6-6-6-6-6-6-6-6-|
|-0-0-0-0-0-0-0-0-0-0-0-0-0-0-0-0-|---------------------------------|


  q  q  q  q    S S S S S S S S S S S S S S S S   q  q  q  q
|-7--7--7--7--|-6-6-6-6-6-6-6-6-6-6-6-6-6-6-6-6-|-7--7--7--7---|
|-8--8--8--8--|-7-7-7-7-7-7-7-7-7-7-7-7-7-7-7-7-|-8--8--8--8---|
|-9--9--9--9--|-8-8-8-8-8-8-8-8-8-8-8-8-8-8-8-8-|-9--9--9--9---|
|-9--9--9--9--|-8-8-8-8-8-8-8-8-8-8-8-8-8-8-8-8-|-9--9--9--9---|
|-7--7--7--7--|-6-6-6-6-6-6-6-6-6-6-6-6-6-6-6-6-|-7--7--7--7---|
|-0--0--0--0--|---------------------------------|-0--0--0--0---|


  S S S S S S S S S S S S S S S S   S S S S S S S S S S S S S S S S
|-6-6-6-6-6-6-6-6-6-6-6-6-6-6-6-6-|-7-7-7-7-7-7-7-7-7-7-7-7-7-7-7-7-|
|-7-7-7-7-7-7-7-7-7-7-7-7-7-7-7-7-|-8-8-8-8-8-8-8-8-8-8-8-8-8-8-8-8-|
|-8-8-8-8-8-8-8-8-8-8-8-8-8-8-8-8-|-9-9-9-9-9-9-9-9-9-9-9-9-9-9-9-9-|
|-8-8-8-8-8-8-8-8-8-8-8-8-8-8-8-8-|-9-9-9-9-9-9-9-9-9-9-9-9-9-9-9-9-|
|-6-6-6-6-6-6-6-6-6-6-6-6-6-6-6-6-|-7-7-7-7-7-7-7-7-7-7-7-7-7-7-7-7-|
|---------------------------------|-0-0-0-0-0-0-0-0-0-0-0-0-0-0-0-0-|


  S S S S S S S S S S S S S S S S   S S S S S S S S S S S S S S S S
|-6-6-6-6-6-6-6-6-6-6-6-6-6-6-6-6-|-7-7-7-7-7-7-7-7-7-7-7-7-7-7-7-7-|
|-7-7-7-7-7-7-7-7-7-7-7-7-7-7-7-7-|-8-8-8-8-8-8-8-8-8-8-8-8-8-8-8-8-|
|-8-8-8-8-8-8-8-8-8-8-8-8-8-8-8-8-|-9-9-9-9-9-9-9-9-9-9-9-9-9-9-9-9-|
|-8-8-8-8-8-8-8-8-8-8-8-8-8-8-8-8-|-9-9-9-9-9-9-9-9-9-9-9-9-9-9-9-9-|
|-6-6-6-6-6-6-6-6-6-6-6-6-6-6-6-6-|-7-7-7-7-7-7-7-7-7-7-7-7-7-7-7-7-|
|---------------------------------|-0-0-0-0-0-0-0-0-0-0-0-0-0-0-0-0-|


  S S S S S S S S S S S S S S S S   S S E S S E E E S S E   S S E E E
|-6-6-6-6-6-6-6-6-6-6-6-6-6-6-6-6-|-----------------------|------------|
|-7-7-7-7-7-7-7-7-7-7-7-7-7-7-7-7-|-----------------------|------------|
|-8-8-8-8-8-8-8-8-8-8-8-8-8-8-8-8-|-------------4-3-----3-|------------|
|-8-8-8-8-8-8-8-8-8-8-8-8-8-8-8-8-|-2-2-3-2-2-3-4-3-2-2-3-|-2-2-3-4-3--|
|-6-6-6-6-6-6-6-6-6-6-6-6-6-6-6-6-|-2-2-3-2-2-3-2-1-2-2-1-|-2-2-3-4-3--|
|---------------------------------|-0-0-1-0-0-1-----0-0---|-0-0-1-2-1--|


  S S E S S E E E S S E   S S E E E S S E S S E   E E S S E S S E E E
|-----------------------|-----------------------|----------------------|
|-----------------------|-----------------------|----------------------|
|-------------4-3-----3-|-----------------------|-4-3-----3------------|
|-2-2-3-2-2-3-4-3-2-2-3-|-2-2-3-4-3-2-2-3-2-2-3-|-4-3-2-2-3-2-2-3-4-3--|
|-2-2-3-2-2-3-2-1-2-2-1-|-2-2-3-4-3-2-2-3-2-2-3-|-2-1-2-2-1-2-2-3-4-3--|
|-0-0-1-0-0-1-----0-0---|-0-0-1-2-1-0-0-1-0-0-1-|-----0-0---0-0-1-2-1--|


  S S E S S E E E S S E   S S E E E H    Q  Q    H    Q  Q
|-----------------------|----------------------|-------------|
|-----------------------|----------------------|-------------|
|-------------4-3-----3-|-----------4----------|-4-----------|
|-2-2-3-2-2-3-4-3-2-2-3-|-2-2-3-4-3-3----------|-3-----------|
|-2-2-3-2-2-3-2-1-2-2-1-|-2-2-3-4-3-2----------|-2-----------|
|-0-0-1-0-0-1-----0-0---|-0-0-1-2-1------0--0--|------0--0---|


  H    Q  Q    E Q  E E E Q  H      Q  Q  H      Q  Q
|------------|--------------------|------------|-------|
|------------|--------------------|------------|-------|
|-4----------|-4----------5--4----|-------4----|-------|
|-3----------|-3--------4----3----|-------3----|-------|
|-2----------|-2------3------2----|-------2----|-------|
|------0--0--|------2-------------|-0--0-------|-0--0--|


  H    Q  Q    E Q  E E E Q    H    Q  Q    H    Q  Q
|------------|---------------|------------|------------|
|------------|---------------|------------|------------|
|-4----------|-4----------5--|-4----------|-4----------|
|-3----------|-3--------4----|-3----------|-3----------|
|-2----------|-2------3------|-2----------|-2----------|
|------0--0--|------2--------|------0--0--|------0--0--|


  H    Q  Q    E Q  E E E Q    H    Q  Q    H    Q  Q
|------------|---------------|------------|------------|
|------------|---------------|------------|------------|
|-4----------|-4----------5--|-4----------|-4----------|
|-3----------|-3--------4----|-3----------|-3----------|
|-2----------|-2------3------|-2----------|-2----------|
|------0--0--|------2--------|------0--0--|------0--0--|

[ Tab from: http://www.guitartabs.cc/tabs/m/misc_unsigned_bands/goregoat_pillage_tab.html ]
  H    Q  Q    E Q  E E E Q    H    Q  Q    H    Q  Q
|------------|---------------|------------|------------|
|------------|---------------|------------|------------|
|-4----------|-4----------5--|-4----------|-4----------|
|-3----------|-3--------4----|-3----------|-3----------|
|-2----------|-2------3------|-2----------|-2----------|
|------0--0--|------2--------|------0--0--|------0--0--|


  H    Q  Q    E Q  E E E Q    H    Q  Q    H    Q  Q
|------------|---------------|------------|------------|
|------------|---------------|------------|------------|
|-4----------|-4----------5--|-4----------|-4----------|
|-3----------|-3--------4----|-3----------|-3----------|
|-2----------|-2------3------|-2----------|-2----------|
|------0--0--|------2--------|------0--0--|------0--0--|


  H    Q  Q    E Q  E E E Q    H    Q  Q    H    Q  Q
|------------|---------------|------------|------------|
|------------|---------------|------------|------------|
|-4----------|-4----------5--|-4----------|-4----------|
|-3----------|-3--------4----|-3----------|-3----------|
|-2----------|-2------3------|-2----------|-2----------|
|------0--0--|------2--------|------0--0--|------0--0--|


  H    Q  Q    E Q  E E E Q  Q  Q  Q  Q  Q  Q  Q  Q
|------------|---------------------------------------|
|------------|---------------------------------------|
|-4----------|-4----------5--------------------------|
|-3----------|-3--------4-------------4-----------4--|
|-2----------|-2------3---------3-----------3--------|
|------0--0--|------2--------2-----2-----2-----2-----|


  Q  Q  Q  Q    Q  Q  Q  Q
|-------------|---------------|
|-------------|---------------|
|-------------|---------------|
|----------4--|-------5--4----|
|----3--------|----4----------|
|-2-----2-----|-3-------------|


  Q  Q  Q  Q    Q  Q  Q  Q    Q  Q  Q  Q    Q  Q  Q  Q
|-------------|-------------|-------------|-------------|
|-------------|-------------|-------------|-------------|
|-------------|-------------|-------------|-------------|
|----------4--|----------4--|----------4--|-------5--4--|
|----3--------|----3--------|----3--------|----4--------|
|-2-----2-----|-2-----2-----|-2-----2-----|-3-----------|


  W          W          W          W
|-7--------|----------|-6--------|------|
|-8--------|----------|-7--------|------|
|-9--------|----------|-8--------|------|
|-9--------|----------|-8--------|------|
|-7--------|----------|-6--------|------|
|-0--------|----------|----------|------|


  W          W          W          W
|-7--------|----------|-6--------|------|
|-8--------|----------|-7--------|------|
|-9--------|----------|-8--------|------|
|-9--------|----------|-8--------|------|
|-7--------|----------|-6--------|------|
|-0--------|----------|----------|------|


  H    Q  Q    H    Q  Q    H    Q  Q    Q  E E E E Q
|------------|------------|------------|---------------|
|------------|------------|------------|---------------|
|-9----------|-9----------|-8----------|-8-------------|
|-9----2--2--|-9----2--2--|-8----2--2--|-8-------------|
|-7----2--2--|-7----2--2--|-6----2--2--|-6----------2--|
|------0--0--|------0--0--|------0--0--|------0-3-4----|


  H    Q  Q    H    Q  Q    H    Q  Q    Q  E E E E Q
|------------|------------|------------|---------------|
|------------|------------|------------|---------------|
|-9----------|-9----------|-8----------|-8-------------|
|-9----2--2--|-9----2--2--|-8----2--2--|-8-------------|
|-7----2--2--|-7----2--2--|-6----2--2--|-6-------------|
|------0--0--|------0--0--|------0--0--|------0-3-4-2--|


  H    Q  Q    H    Q  Q    H    Q  Q    Q  E E E E Q
|------------|------------|------------|---------------|
|------------|------------|------------|---------------|
|-9----------|-9----------|-8----------|-8-------------|
|-9----2--2--|-9----2--2--|-8----2--2--|-8-------------|
|-7----2--2--|-7----2--2--|-6----2--2--|-6----------2--|
|------0--0--|------0--0--|------0--0--|------0-3-4----|


  H    Q  Q    H    Q  Q    H    Q  Q    Q  E E E E Q
|------------|------------|------------|---------------|
|------------|------------|------------|---------------|
|-9----------|-9----------|-8----------|-8-------------|
|-9----2--2--|-9----2--2--|-8----2--2--|-8-------------|
|-7----2--2--|-7----2--2--|-6----2--2--|-6-------------|
|------0--0--|------0--0--|------0--0--|------0-3-4-2--|


  H    Q  Q    H    Q  Q    H    Q  Q    Q  E E E E Q
|------------|------------|------------|---------------|
|------------|------------|------------|---------------|
|-9----------|-9----------|-8----------|-8-------------|
|-9----2--2--|-9----2--2--|-8----2--2--|-8-------------|
|-7----2--2--|-7----2--2--|-6----2--2--|-6----------2--|
|------0--0--|------0--0--|------0--0--|------0-3-4----|


  H    Q  Q    H    Q  Q    H    Q  Q    Q  E E E E Q
|------------|------------|------------|---------------|
|------------|------------|------------|---------------|
|-9----------|-9----------|-8----------|-8-------------|
|-9----2--2--|-9----2--2--|-8----2--2--|-8-------------|
|-7----2--2--|-7----2--2--|-6----2--2--|-6-------------|
|------0--0--|------0--0--|------0--0--|------0-3-4-2--|


  S S S S S S S S q  q    S S S S S S S S q  q    S S S S S S S S q  q
|-----------------------|-----------------------|------------------------|
|-----------------------|-----------------------|------------------------|
|-9-9-9-9-9-9-9-9-------|-9-9-9-9-9-9-9-9-------|-8-8-8-8-8-8-8-8--------|
|-9-9-9-9-9-9-9-9-2--2--|-9-9-9-9-9-9-9-9-2--2--|-8-8-8-8-8-8-8-8-2--2---|
|-7-7-7-7-7-7-7-7-2--2--|-7-7-7-7-7-7-7-7-2--2--|-6-6-6-6-6-6-6-6-2--2---|
|-----------------0--0--|-----------------0--0--|-----------------0--0---|


  S S S S S S E E E Q    S S S S S S S S q  q    S S S S S S S S q  q
|----------------------|-----------------------|-----------------------|
|----------------------|-----------------------|-----------------------|
|-8-8-8-8-8-8----------|-9-9-9-9-9-9-9-9-------|-9-9-9-9-9-9-9-9-------|
|-8-8-8-8-8-8----------|-9-9-9-9-9-9-9-9-2--2--|-9-9-9-9-9-9-9-9-2--2--|
|-6-6-6-6-6-6-------2--|-7-7-7-7-7-7-7-7-2--2--|-7-7-7-7-7-7-7-7-2--2--|
|-------------0-3-4----|-----------------0--0--|-----------------0--0--|


  E E E E E E E E   E E E E E E Q  Q
|-----------------|-------------------|
|-----------------|-------------------|
|-8-8-8-8---------|-8-8-8-------------|
|-8-8-8-8---------|-8-8-8-------------|
|-6-6-6-6---------|-6-6-6-------------|
|---------0-0-0-0-|-------0-2-3-2--0--|




--------------------------------------------------------------------------------


Duration Legend
---------------
W - whole; H - half; Q - quarter; E - 8th; S - 16th; T - 32nd; X - 64th; a - acciaccatura
+ - note tied to previous; . - note dotted; .. - note double dotted
Uncapitalized letters represent notes that are staccato (1/2 duration)
Irregular groupings are notated above the duration line
Duration letters will always appear directly above the note/fret number it represents the
duration for.  Duration letters with no fret number below them represent rests.  Multi-
bar rests are notated in the form Wxn, where n is the number of bars to rest for.  Low
melody durations appear below the staff

Tablature Legend
----------------
 h   - hammer-on
 p   - pull-off
 b   - bend
 pb  - pre-bend
 r   - bend release (if no number after the r, then release immediately)
 /\  - slide into or out of (from/to "nowhere")
 s   - legato slide
 S   - shift slide
 - natural harmonic
[n]  - artificial harmonic
n(n) - tapped harmonic
 ~   - vibrato
 tr  - trill
 T   - tap
 TP  - trem. picking
 PM  - palm muting
\n/  - tremolo bar dip; n = amount to dip
 \n  - tremolo bar down
 n/  - tremolo bar up
/n\  - tremolo bar inverted dip
 =   - hold bend; also acts as connecting device for hammers/pulls
 <> - volume swell (louder/softer)
 x   - on rhythm slash represents muted slash
 o   - on rhythm slash represents single note slash

Misc Legend
-----------
 |  - bar
||  - double bar
||o - repeat start
o|| - repeat end
*|  - double bar (ending)
 :  - bar (freetime)
 $  - Segno
 &  - Coda
Tempo markers -  = BPM(8/16=s8/s16), where s8 = swing 8ths, s16 = swing 16ths



--------------------------------------------------------------------------------

** Generated using Power Tab Editor by Brad Larsen: The Official Power Tab Web Site
Comments