Misc Unsigned Bands - Good Compared 2 Nothing - Qwerty Chords & Tabs

 

Good Compared 2 Nothing - Qwerty Chords & Tabs

Misc Unsigned Bands Chords & Tabs

Version: 1 Type: Tab 0 ratings
1 star 2 stars 3 stars 4 stars 5 stars
comments

Good Compared 2 Nothing - Qwerty Tab

this is a new band that not many people know about but their good so heres a song i tabbed 


//=slide

intro:
e-------------------------------------------------------------------------
g-------------------------------------------------------------------------
b-------------------------------------------------------------------------
d----------2-------------2-------------2-------------2--------------------
a----------2-------------2-------------2-------------2--0--3--2--0--------
E-0--2--3-----//0--2--3-----//0--2--3-----//0--2--3-----------------------


verse:  (repeat 2x's)
e--------------------------------------------------------------------------
g--------------------------------------------------------------------------
b--------------------------------------------------------------------------
d--2--4--5--5--5----------             --2--7--5--5--5--5  
a--2--4--5--5--5---------- repeat 4x   --2--7--5--5--5--5  repeat 3x
E--0--2--3--3--3----------             --0--5--3--3--3--3     (after 3x add) 

                                                        e--------------------
                                                        g-------------------   
                                                        b--------------------   
                                                        d--7-------9------      
                                                        a--7-- 5x--9-- 5x 
                                                        E--5-------7-------
[ Tab from: http://www.guitartabs.cc/tabs/m/misc_unsigned_bands/good_compared_2_nothing_qwerty_tab.html ]
Chorus:
e----------------------------------------------------------------------------
g----------------------------------------------------------------------------
b----------------------------------------------------------------------------
d--2--4--5--5--5--7----------------------------------------------------------
a--2--4--5--5--5--7-- repeat 4x----------------------------------------------
E--0--2--3--3--3--5----------------------------------------------------------     
                                                               
verse
chorus


solo:
e------------------------------------------------------------------------------
g------------------------------------------------------------------------------
b------------------------------------------------------------------------------
d------------------------------------------------------------------------------
a------------------------------------------------------------------------------
E--15-15-15-15-18-18-18-14-14-14-14-17-17-17-13-13-13-13-16-16-16-12-12-12-12-

d------------------------------------------------------------------------------
a------------------------------------------------------------------------------
E-15-15-15--- 4x --------------------------------------------------------------


// chorus
verse
verse


breakdown:

e-------------------------------------------------------------------------------
g-------------------------------------------------------------------------------
b-------------------------------------------------------------------------------
d-----3--2--0--3--3-----3--2--0--2----------------------------------------------
a--3-----------3--3--3-----------2-- (repeat 5x)--------------------------------
E--------------1--1--------------0----------------------------------------------
   


chorus 2x


there it is if you dont like it thats cool............o yeah AUGUST 8th kicks ass
Comments