Misc Unsigned Bands - Forever Eternal - Fradgile Emotions Chords & Tabs

 

Forever Eternal - Fradgile Emotions Chords & Tabs

Misc Unsigned Bands Chords & Tabs

Version: 1 Type: Bass Tab 0 ratings
1 star 2 stars 3 stars 4 stars 5 stars
comments

Forever Eternal - Fradgile Emotions Bass Tab

   
Tabbed by Will F.
ya 34 @ hotmail.com

this a new band in Tacoma, Wa

Intro
G)---------------------------------|
D)---------------------------------|
A)---------------------------------| x2
E)----0----3----5----3----0--0--0--|


1st Verse
G)-------------------------|
D)-------------------------|
A)----5-5---3-3----0-0-----|repeat until veres is over
E)2-2----5-5----2-2----3-3-|
[ Tab from: http://www.guitartabs.cc/tabs/m/misc_unsigned_bands/forever_eternal_fradgile_emotions_btab.html ]
Chorus
G)-------------------------------------5-5-------------5-5----------|
D)-----5-5-------------5-5-----------------5-5-2-2---------5-5-2-2--|
A)---------5-5-2-2---------5-5-2-2--3-3------------3-3--------------|
E)--3-3------------3-3--------------------------------------------3-|

Solo
G)-12-12-12-12-12-12-12-12-9-9-9-9-9-9-9-9-10-10-10-10-|
D)-----------------------------------------------------|
A)-----------------------------------------------------|x2
E)-----------------------------------------------------|

2nd verse repeat 1st verse

Chorus is the same as before

end of song

Hope you like it alot! thanx
Comments