Misc Unsigned Bands - Fitacola - Outros Dias Chords & Tabs

 

Fitacola - Outros Dias Chords & Tabs

Misc Unsigned Bands Chords & Tabs

Version: 1 Type: Tab

Fitacola - Outros Dias Tab

Outros Dias tab:

E|------------------------------------------------------------------|
B|------------------------------------------------------------------|
G|-----11---11---11--------8---8---8---------11---11---11-----------|
D|---9----9----9----9----8---8---8---8-----9----9----9----9--8------|
A|-7-------------------6-----------------7-------------------6------|
E|------------------------------------------------------------------|


E|--------------------|2X
B|--------------------|
G|-9---11---8---9---4-|
D|-9---11---8---9---4-|
A|-7---9----6---7---2-|
E|--------------------|


E|---------------------------------|2X
B|---------------------------------|
G|-8---9---4---------8---9---6-----|
D|-8---9---4---4-----8---9---6---2-|
A|-6---7---2---4-----6---7---4---2-|
E|-------------2-----------------0-|



E|---------------------------|3X
B|---------------------------|
G|-4-------4-----------------|
D|-4---4---4---4---6---4---2-|
A|-2---4---2---4---4---4---2-|
E|-----2-------2---4---2---0-|


E|--------------------------------|
B|--------------------------------|
G|-4-------4---------------9---11-|
D|-4---4---4---4---6---4---9---11-|
A|-2---4---2---4---6---4---7---9--|
E|-----2-------2---4---2----------|

[ Tab from: http://www.guitartabs.cc/tabs/m/misc_unsigned_bands/fitacola_outros_dias_tab.html ]
E|----------------------------|2X
B|----------------------------|
G|-4-----------9---8---9---11-|
D|-4---4---6---9---8---9---11-|
A|-2---4---6---7---6---7---9--|
E|-----2---4------------------|


E|--7---7-6--4-6-7---4~---7---7-6---4-6-6/7--6-7-7/9--7-9-9/11--9-11-11/14--14~-|
B|----7------------7--------7---------------------------------------------------|
G|------------------------------------------------------------------------------|
D|------------------------------------------------------------------------------|
A|------------------------------------------------------------------------------|
E|------------------------------------------------------------------------------|


E|---------------------------|
B|---------------------------|
G|-8---4-------4-----------9-|
D|-8---4---4---4---6---4---9-|
A|-6---2---4---2---6---4---7-|
E|---------2-------4---2-----|


E|--------------------------------|
B|--------------------------------|
G|-8---4-------4-----------9---11-|
D|-8---4---4---4---6---4---9---11-|
A|-6---2---4---2---6---4---7---9--|
E|---------2-------4---2----------|
                           (P.M.)


E|----------------------------|4X
B|----------------------------|
G|-4-----------9---8---9---11-|
D|-4---4---6---9---8---9---11-|
A|-2---4---6---7---6---7---9--|
E|-----2---4------------------|


E|---------|
B|---------|
G|-4-------|
D|-4-------|
A|-2-------|
E|---------|

SapoCocas20