Misc Unsigned Bands - Februarys Closure - Dear Whoever Chords & Tabs

 

Februarys Closure - Dear Whoever Chords & Tabs

Misc Unsigned Bands Chords & Tabs

Version: 1 Type: Bass Tab

Februarys Closure - Dear Whoever Bass Tab

February’s Closure
Dear whoever


Intro
G |---------------------------------------------------------------------|
D |---------------------------------------------------------------------|
A |-----4-4-4-4-4-4-4---------------------------------------------------|
E |---------------------------------------------------------------------|

Chorus
G |---------------------------------------------------------------------| 2x
D |---------------------------------------------------------------------|
A |-----4444--4444—0000—22222----4444—4444---0-0-0-0-2-2-2-2------------|
E |---------------------------------------------------------------------|

G |-----------------------------------------------------------------------|
D |-----------------------------------------------------------------------|
A |---4 Ring out---7-6-4\6------------------------------------------------|
E |-----------------------------------------------------------------------|
[ Tab from: http://www.guitartabs.cc/tabs/m/misc_unsigned_bands/februarys_closure_dear_whoever_btab.html ]
Verse
G |----------------------------------------------------------------------| 2x
D |----------------------------------------------------------------------|
A |---------------------44-44--------------------------------------------|
E |--5-555-5-555-5-55555------44-44444-----------------------------------|

G |------------------------------------------------------------------------|
D |------------------------------------------------------------------------|
A |------------------------------------------------------------------------|
E |--5 Ring out---7-6-4\6--------------------------------------------------|

Chorus

Interlude Guitar Solo (mute strings)
      Play V that part once after interlude
G |--------------|-------------------------------------------------------| 4x
D |--------------|-------------------------------------------------------|
A |---4-4-4-4----|----4444-4444-0000-2222--------------------------------|
E |--------------|-------------------------------------------------------|


G |----------------------------------------------------------------------|
D |----------------------------------------------------------------------|
A |---4 Ring out---------------------------------------------------------|
E |----------------------------------------------------------------------|