Misc Unsigned Bands - False Sublimity - Food Chords & Tabs

 

False Sublimity - Food Chords & Tabs

Misc Unsigned Bands Chords & Tabs

Version: 1 Type: Bass Tab 0 ratings
1 star 2 stars 3 stars 4 stars 5 stars
comments

False Sublimity - Food Bass Tab

This is better than the last False Sublimity song. This is a punk rock band to watch out for. They rock!

False Sublimity - Food
Tabbed By : madbassist04!
e-mail/msn: goodcharlotte500500@hotmail.com
Standard Tuning Tuning

Guitar intro

Bass comes in at verse.

Verse One
G|-------------------------------------------------------------------------------|
D|-------------------------------------------------------------------------------|  x5
A|----7-777-------------5-555----------------------------------------------------|
E|--------------7-777-------------5-555------------------------------------------|

Chorus One
G|------------------------------------------------------------------------------|
D|------------------------------------------------------------------------------| x2
A|----77777777-------------------5555555----------------------------------------|
E|--------------------77777777-----------------5555555--------------------------|
[ Tab from: http://www.guitartabs.cc/tabs/m/misc_unsigned_bands/false_sublimity_food_btab.html ]
Verse Two
G|-------------------------------------------------------------------------------|
D|-------------------------------------------------------------------------------|  x2
A|----7-777-------------5-555----------------------------------------------------|
E|--------------7-777-------------5-555------------------------------------------|

Chorus Two
G|------------------------------------------------------------------------------|
D|------------------------------------------------------------------------------| x2
A|----77777777-------------------5555555----------------------------------------|
E|--------------------77777777-----------------5555555--------------------------|

Little guitar doodle

Verse Three
G|-------------------------------------------------------------------------------|
D|-------------------------------------------------------------------------------|  x2
A|----7-777-------------5-555----------------------------------------------------|
E|--------------7-777-------------5-555------------------------------------------|

Ending Chorus
G|------------------------------------------------------------------------------|
D|------------------------------------------------------------------------------| x4
A|----77777777-------------------5555555----------------------------------------|
E|--------------------77777777-----------------5555555--------------------------|
Comments