Misc Unsigned Bands - F M I - Screaming Taradactyl Of Death Chords & Tabs

 

F M I - Screaming Taradactyl Of Death Chords & Tabs

Misc Unsigned Bands Chords & Tabs

Version: 1 Type: Tab 0 ratings
1 star 2 stars 3 stars 4 stars 5 stars
comments

F M I - Screaming Taradactyl Of Death Tab

   
This is a realllllllyy underground garage band.They live in chandler AZ.Their
albums not up yet but...im the guitar player.Hahaha!Any way i hope you like the song.
*************
Key:
x-mute
?-tremolo picking(attacking string as fast as you can)
/or \-slide
b-bend
h-hammer on
p-pull off
>>>>>>>-fade out
[ ]-natural harmonic
( )-carry on
*-virbrato
**************
[ Tab from: http://www.guitartabs.cc/tabs/m/misc_unsigned_bands/f_m_i_screaming_taradactyl_of_death_tab.html ]
INTRO:    
e|-2222-44/5-----2222-44/5-----2222-44/5----10101010-9-9-9-9-------------|
B|-2222-44/5-----2222-44/5-----2222-44/5----10101010-9-9-9-9-------------|
G|-2222-44/5-----2222-44/5-----2222-44/5----1212121211111111-------------|
D|-4444-66/7-----4444-66/7-----4444-66/7----1212121211111111-------------|
A|-4444-66/7-----4444-66/7-----4444-66/7----1212121211111111-------------|
E|-2222-44/5--0--2222-44/5--0--2222-44/5----10101010-9-9-9-9-------------|
         ^             ^             ^  
       16th          16th          16th
VERSE:
e|-3333-55/6-----3333-55/6-----3333-55/6----10101010-9-9-9-9-------------|
B|-3333-55/6-----3333-55/6-----3333-55/6----10101010-9-9-9-9-------------|
G|-3333-55/6-----3333-55/6-----3333-55/6----1212121211111111-------------|
D|-5555-77/8-----5555-77/8-----5555-77/8----1212121211111111-------------|
A|-5555-77/8-----5555-77/8-----5555-77/8----1212121211111111-------------|
E|-3333-55/6--0--3333-55/6--0--3333-55/6----10101010-9-9-9-9-------------|
         ^             ^             ^
       16th          16th          16th
PRE CHORUS:
e|-2---------------------------------------------------------------------|
B|-2---------------------------------------------------------------------|
G|-2---------------------------------------------------------------------|
D|-4---------------------------------------------------------------------|
A|-4---------------------------------------------------------------------|
E|-2--------[x]h[x]h[x]h[x]h[x]h[x]h[x]h[x]------------------------------|
   ^whole    ?   ?   ?   ?   ?   ?   ?   ?
e|-5---------------------------------------------------------------------|
B|-5---------------------------------------------------------------------|
G|-5---------------------------------------------------------------------|
D|-7---------------------------------------------------------------------|
A|-7---------------------------------------------------------------------|
E|-5--------[x]h[x]h[x]h[x]h[x]h[x]h[x]h[x]------------------------------|
   ^whole    ?   ?   ?   ?   ?   ?   ?   ?                              x2
e|-----------------------------------------------------------------------|
B|-11(11)-----------11(11)-----------------------------------------------|
G|-13(13)b----------13(13)b--------20*--18*------------------------------|
D|-----------------------------------------------------------------------|
A|-----------------------------------------------------------------------|
E|-----------------------------------------------------------------------|
      ^whole           ^whole      ^wholes^
INTERLUDE:(dont ask why its after the pre-chorus.)                      x4
e|-----------------------------------------------------------------------|
B|-----------------------------------------------------------------------|
G|-----------------------------------------------------------------------|
D|--7h5--------7*--------------------------------------------------------|
A|-----7h5---------------------------------------------------------------|
E|---------8h5-----------------------------------------------------------|

CHORUS:
e|-2222-44/5-----2222-44/5-----2222-44/5----10101010-9-9-9-9-------------|
B|-2222-44/5-----2222-44/5-----2222-44/5----10101010-9-9-9-9-------------|
G|-2222-44/5-----2222-44/5-----2222-44/5----1212121211111111-------------|
D|-4444-66/7-----4444-66/7-----4444-66/7----1212121211111111-------------|
A|-4444-66/7-----4444-66/7-----4444-66/7----1212121211111111-------------|
E|-2222-44/5--0--2222-44/5--0--2222-44/5----10101010-9-9-9-9-------------|
         ^             ^             ^  
       16th          16th          16th
OUTRO:
e|-2-------2x2x2>>>>>>>>-------------------------------------------------|
B|-2-------2x2x2>>>>>>>>-------------------------------------------------|
G|-2-------2x2x2>>>>>>>>-------------------------------------------------|
D|-4-------4x4x4>>>>>>>>-------------------------------------------------|
A|-4-------4x4x4>>>>>>>>-------------------------------------------------|
E|-2-------2x2x2>>>>>>>>-------------------------------------------------|
   ^           ^
 whole       whole

Short song but good.

Hope ya enjoyed it!

Tabbed by: keegan

F.M.I. web site:http://flamingmonkeyinferno.bravehost.com
LOOK FOR THE UPCOMING ALBUM!!!!!!!
MORE F.M.I. TO COME!!!!!!
Comments