Misc Unsigned Bands - Every Skeebs Has Its Thorn - Nice Mask Chords & Tabs

 

Every Skeebs Has Its Thorn - Nice Mask Chords & Tabs

Misc Unsigned Bands Chords & Tabs

Version: 1 Type: Tab 0 ratings
1 star 2 stars 3 stars 4 stars 5 stars
comments

Every Skeebs Has Its Thorn - Nice Mask Tab

   
-------------------------------------------------------------------------------
			    NICE MASK - Every Skeebs Has Its Thorn
-------------------------------------------------------------------------------
Tabbed by: superduck
Email: Superduck90210@comcast.net

Tuning: Regular


Every Skeebs Has Its Thorn is an underground rock band in the Pittsburgh, PA area. They
have no album but they do have a lot of songs. Here's one of their best ones. If you've
heard it you know that the lyrics are about the killer in every horror movie, and the
tab should be pretty easy to play. This sounds incredibly spot on.
Intro Riff:

e|8-10-8-6-6-4-6-4-3-3|
B|--------------------| (repeat this 4x)
G|--------------------|
D|--------------------|
A|--------------------|
E|--------------------|

Intro Power Chords, listen to song for rhythym (play these after playing the Intro Riff 4x)
[ Tab from: http://www.guitartabs.cc/tabs/m/misc_unsigned_bands/every_skeebs_has_its_thorn_nice_mask_tab.html ]
e|--------------------|
B|--------------------|
G|5-------------------|
D|5-5-3-7-5-----------|
A|3-5-3-5-5-----------|
E|--3-1-5-3-----------|

Verse Riff
e|--------------------|
B|--------------------|
G|5---3---------------|
D|5-5-3-3-------------|
A|3-5-1-3-------------|
E|--3---1-------------|

Verse Riff #2
e|--------------------------------------------------------------|
B|--------------------------------------------------------------|
G|--------------------------------------------------------------|
D|-------------------------------------------------5-5-5-5-5-5-5|
A|----------------1-1-1-1-1-1-1-1------------------5-5-5-5-5-5-5|
E|-3-3-3-3-3-3-3-3---------------1-1-1-1-1-1-1-1-3-3-3-3-3-3-3-3|

Chorus (listen to song to figure out rhythym
e|--------------------|
B|--------------------|
G|5-------------------|
D|5-5-3-7-5-----------|
A|3-5-3-5-5-----------|
E|--3-1-5-3-----------|

That's all the parts in the song, here's the order

Intro Riff
Intro Power Chords
Verse Riff
Verse Riff #2
Chorus
Intro Riff
Intro Power Chords
Verse Riff
Verse Riff #2
Chorus
Intro Riff
Comments