Misc Unsigned Bands - Evans - Drink And Drive Chords & Tabs

 

Evans - Drink And Drive Chords & Tabs

Misc Unsigned Bands Chords & Tabs

Version: 1 Type: Tab 0 ratings
1 star 2 stars 3 stars 4 stars 5 stars
comments

Evans - Drink And Drive Tab

   
Title: Drink and Drive
Group: evans


Intro..

Guitar 1      [First part]
|----------|----------|-------0--|
|-------0--|-------0--|-------0--|
|-----0----|-----0----|-----0----|
|---9------|---7------|---5------|
|-7--------|-5--------|-3--------|
|----------|----------|----------|

 
But Final Ending is

|----------x--|
|-------0--0--|
|-----x----x--|
|---4------4--|    
|-2--------2--|
|----------x--|


[Second Part]
|-0-0----------|-0-0----------|-0-0----------|
|-0-0-----0----|-0-0-----0----|-0-0-----0----|
|-----0-----0--|-----0-----0--|-----0-----0--|
|-9-9---9------|-7-7---7------|-5-5---5------|   6x
|-7-7----------|-5-5----------|-3-3----------|   
|--------------|--------------|--------------|

play this 6x but on the third time guitar 2 
starts to play ;  see below..

Guitar 2      [Second Part 2]
|-7-7h8p7--------|
|---------10p8h10|
|----------------|
|----------------| Then after it stops, guitar 1 plays ; see below
|----------------|
|----------------|

Guitar 1      [Third Part]
|---x---------x-x-----------x-x--------------|
|---0-0-------0-0-----------0-0--------------|
|---0-0-------0-0-----------0-0---4p0--------|
|---9-9/7-----7-7/9\7\5-----5-5/7-----7b-5~--|
|-7-x-------5-x-x---------3-x-x--------------|
|---x---------x-x-----------x----------------|

Meanwhile the Guitar 2 plays ;

              [Third Part 2]
|-------------5---5-7/8----14-15-15p12----15p12----15p12--------------|
|-5-7-7/8-7-8---7-------12-------------13-------13-------13-12-13~/0--|
|---------------------------------------------------------------------|
|---------------------------------------------------------------------|
|---------------------------------------------------------------------|
|---------------------------------------------------------------------|

Then after that Guitar 1 plays Second Part again 3 times.

Then..

|---x-x-------x-x-------00--x-x--|
|---0-0-------0-0-------00--x-0--|
|---0-0-------0-0-----------x-0--|
|---5-5/7-----7-7/10-10-10--x-9--| play this 3 times
|-3-x-3/5---5-x-5/7---------x-x--|
|---x-x-------x-x-----------x-x--|


Verse..

|---000--x-0-0-|---000--x-0-0-|---000--x-0-0-|---000--x-0\-0-|
|---888--x-8-8-|---000--x-0-0-|---000--x-0-0-|---000--x-0\-0-|
|---999--x-9-9-|---999--x-9-9-|---777--x-7-7-|---555--x-5\-4-|
|---999--x-9-9-|---999--x-9-9-|---777--x-7-7-|---555--x-5\-4-|
|-7-777--x-7-7-|-7-777--x-7-7-|-5-555--x-5-5-|-3-333--x-3\-2-|
|-0-000--x-0-0-|-8-888--x-8-8-|---xxx--x-x-x-|---xxx--x-x\-x-|


Chorus..

|--------------------------------------------------------------------|
|--------------------------------------------------------------------|
|-12121212-12121212-121212-7777-7777-777-9999-9999-999-5555-5555-555-|
|-12121212-12121212-121212-7777-7777-777-9999-9999-999-5555-5555-555-|
|-10101010-10101010-101010-5555-5555-555-7777-7777-777-3333-3333-333-|
|--------------------------------------------------------------------|

Then..

|-3------3----3-|
|--5---5--5-5-5-|
|---5---5--5--5-|
|----3--------3-|
|---------------|
|---------------|


Verse 1

I went to a party, mom. 
I remember what you said. 
You told me not to drink, mom. 
So I drank a soda instead. 
I really felt proud inside, mom. 
The way you said I would. 

I didn't drink and drive, mom. 
Even tough the others said I should. 
I know I did the right thing, mom. 
I know you are always right. 

Now the party is finally ending, mom. 
As everyone is driving out of sight.
As I got into my car, mom. 
I knew I'd get home in one piece.
Because of the way you raised me. 
So responsible and sweet. 

Chorus

I started to drive away, mom. 
But as I pulled out into the road. 
The other car didn't se me, mom. 
And hit me like a load. 
[ Tab from: http://www.guitartabs.cc/tabs/m/misc_unsigned_bands/evans_drink_and_drive_tab.html ]
As I lay there on the pavement, mom. 
I hear the policeman say: 
'The other guy is drunk', mom. 
And now I'm the one who will pay. 
I'm laying here dying, mom... 
I wish you get here soon.

Someone should have told him, mom. 
Not to drink and drive. 
If only they had told him, mom. 
I would still be alive. 

Verse 2

How could this happened to me, mom? 
My life is just burst like a balloon. 
There is blood all around me, mom. 
And most of it is mine. 
I hear the medic say, mom. 
I'll die in a short time 

I just wanted to tell you, mom. 
I swear, I didn't drink. 
It was the others think. 

He was probably at the same party as I 
And I will die. 
Why do people drink, mom? 
It can ruin your whole life. 

I'm feeling sharp pains now. 
Pains just like a knife. 
The guy who hit me is walking, mom. 
I'm laying here dying. 
And all he can do is stare.

Tell my brother not to cry, mom. 
Tell daddy to be brave. 
And when I go to heaven, mom. 
Put 'daddys girl' on my grave.

Chorus

I started to drive away, mom. 
But as I pulled out into the road. 
The other car didn't se me, mom. 
And hit me like a load. 

As I lay there on the pavement, mom. 
I hear the policeman say: 
'The other guy is drunk', mom. 
And now I'm the one who will pay. 
I'm laying here dying, mom... 
I wish you get here soon. 

Someone should have told him, mom. 
Not to drink and drive. 
If only they had told him, mom. 
I would still be alive. 

Verse 3

My breath is getting shorter, mom. 
Im becoming very scared. 
Please don't cry for me, mom. 
When I needed you, 
You were always there. 

I have one last question, mom. 
Before I say goodbye. 
I didnt drink and drive, mom, 
So why am I the one to die? 

Chorus

I started to drive away, mom. 
But as I pulled out into the road. 
The other car didn't se me, mom. 
And hit me like a load. 

As I lay there on the pavement, mom. 
I hear the policeman say: 
'The other guy is drunk', mom. 
And now I'm the one who will pay. 
I'm laying here dying, mom... 
I wish you get here soon.

Someone should have told him, mom. 
Not to drink and drive. 
If only they had told him, mom. 
I would still be alive.

Solo

|----------12b-15p12--15p12--15p12-------------------------------------|
|-15-13-12----------13-----13-------12h15p12-12h15p12-12h15p12-12h15p12|
|----------------------------------------------------------------------|
|----------------------------------------------------------------------|
|----------------------------------------------------------------------|
|----------------------------------------------------------------------|

|-----------------------------------------------------------|
|12h14p12-12h14p12-12h14p12-12h14p12-------12---------------|
|---------------------------------------------12h14----14~~-|
|-----------------------------------------------------------|
|-----------------------------------------------------------|
|-----------------------------------------------------------|


Chorus

I started to drive away, mom. 
But as I pulled out into the road. 
The other car didn't se me, mom. 
And hit me like a load. 

As I lay there on the pavement, mom. 
I hear the policeman say: 
'The other guy is drunk', mom. 
And now I'm the one who will pay. 
I'm laying here dying, mom... 
I wish you get here soon.

Someone should have told him, mom. 
Not to drink and drive. 
If only they had told him, mom. 
I would still be alive.


Outro
|---------------------------x
|----0----------------------0
|------0--------------------0
|-------------12---------5--5 ~~~~~~
|-7--------------12----5----5
|----------10--------3------3


Means

h           Hammer On
p           Punch
b           Bend
/           Slide up
\           Slide down
x           Mute
~~          Let Ring
^           Vibrato
**          Tremolo


Maid by Monta

//

This text and song has Copywright by "Evans"
Comments