Misc Unsigned Bands - Down In The Park - The Art Of Falling Chords & Tabs

 

Down In The Park - The Art Of Falling Chords & Tabs

Misc Unsigned Bands Chords & Tabs

Version: 1 Type: Tab 0 ratings
1 star 2 stars 3 stars 4 stars 5 stars
comments

Down In The Park - The Art Of Falling Tab

"The Art of Falling" (Incomplete)

by the coolest band in Louisiana: Down in the Park
From the Album 'The Art of Falling'

Tabbed (POORLY) by: Neil Honeck (weezer_rockmusic@hotmail.com)


Alright, this is my first tab ever. If you are lucky enough
to actually find this album, this is one of the many great tracks on it.
Work with me here, I'm kinda tone-deaf...

<< Drop D Tuning >>------------------------------

Intro (disortion)
E------------------------------------------------|(repeat)
B--------------5-5--5-5--5-5--5-5-5-5/7-7-7------|
G---10----5----x-x--x-x--x-x--x-x-x-x/x-x-x-5----|
D---10----5----3-3--3-3--3-3--3-3-3-3/5-5-5-5----|
A---8-----3---------------------------------3----|
D---8-----3---------------------------------3----|(figure out the strumming yourself)


guitar 01

E------------------------------------------|(repeat)
B------------------------------------------|
G--------------9-9-----------9-9-----------|
D----7-7-10-10-----7-7-10-10-----7-7-10-10-|
A------------------------------------------|
D------------------------------------------|

guitar 02
[ Tab from: http://www.guitartabs.cc/tabs/m/misc_unsigned_bands/down_in_the_park_the_art_of_falling_tab.html ]
E--------------------------------------------|
B--------------------------------------------|
G--10-9-5----10-9-5----10-9-9/12-10-10-9-5---|
D--------------------------------------------|
A--------------------------------------------|
D--------------------------------------------|

breakdown guitar 01

E--------------------------------------------|(repeat once)
B--------------------------------------------|
G-----------------1/3--3/5--5/7--7/9--9/7----|
D-----------------x/x--x/x--x/x--x/x--x/x----|
A--3333333000000001/3--3/5--5/7--7/9--9/7----|
D--333333300000000---------------------------|(figure out the strumming yourself)

breakdown guitar 01 + 02

E------------------------------------------------------------------|
B------------------------------------------------------------------|
G------------------------------------------------------------------|
D------------------------------------------------------------------|
A-3-3-3-3-3-3-3-3-0-0-0-0-0-0-0-0-1-1-1-1-1-1-1-1-1-1-1-1-1-1-1-1--|
D-3-3-3-3-3-3-3-3-0-0-0-0-0-0-0-0-1-1-1-1-1-1-1-1-1-1-1-1-1-1-1-1--|


outro guitar 02 plus 33300001111 breakdown from guitar 01

E---------------------|
B---------------------|
G--------5------------|
D------3--------3-0~~-|
A--3/5------3/5-------|
D---------------------|


whenever somebody, if somebody fixes this up or completes it, please give me proper credit!
-KaTOS
Comments