Misc Unsigned Bands - Distablish - Silent Answer Chords & Tabs

 

Distablish - Silent Answer Chords & Tabs

Misc Unsigned Bands Chords & Tabs

Version: 1 Type: Bass Tab 0 ratings
1 star 2 stars 3 stars 4 stars 5 stars
comments

Distablish - Silent Answer Bass Tab

   
This solo is played with wah on.  its my bass solo from my band Distablish

Key: 
\=SLIDE DOWN
/=SLIDE UP
* = REPEAT MEASURE
 (NOTE) NOTES WITHOUT HYPHENS IN BETWEEN = PLAY VERY FAST.

                                                         4
G|-------||------------------------------------------------|
D|-------||*----------------------------------------------*| 
A|-0~-19\||*-0-12-13-0-12-13-0-12-13-0-12-13-14-14-14-14--*|
E|-------||------------------------------------------------|

                                    4
G|-----------------------------------|
D|*---------------------------------*|
A|*-0-13-12-0-13-12-0-13-12-9-9-9-9-*|
E|-----------------------------------|  

                        2
G|-----------------------|
D|*--------13--------12-*|
A|*-0-12h13---0-13p12---*|
E|-----------------------|

                              2   Tail 
G|-----------------------------||-------|
D|*--------12-14--------13-11-*||-11~~\-|
A|*-0-12h13------0-13p12------*||-------|
E|-----------------------------||-------|

[ Tab from: http://www.guitartabs.cc/tabs/m/misc_unsigned_bands/distablish_silent_answer_btab.html ]
G|--------------5-1-------6-------------|
D|--2----------5-1----3-6--------------|
A|-2----5---2---------3-------1---0---3~-|
E|-----5---2-----------------2---0---5---|


G|------------------------------------------------|
D|-0-00-00-001-2--0-00-00-00-3-4--0-00-00-005-6-|
A|------------------------------------------------|
E|------------------------------------------------|

                                                                         2
G|------------------------------------------------------------------------||------|
D|*-0-00-00-005-6--0-00-00-00--------0-00-00-005-6--0-00-00-00---------*||------|
A|*----------------------------6p5h6p5---------------------------6p5h6p5-*||-(6)\-|
E|------------------------------------------------------------------------||------|


G|--------------------------------------------------------------|
D|--------------------------------------------------------------|
A|---------6-8-6-8~-6h8p6h8~-(8)\-------------------------------|
E|-02-4-6--------------------------0--0000-0000-0000~---19\(0)-|

Delete it, add it , or ignore it; but whatever you do, please rate this. Thanx abunch
                                 -Distablish bassist  Ryne Streeter
Comments