Misc Unsigned Bands - Disagree - Crumbs Chords & Tabs

 

Disagree - Crumbs Chords & Tabs

Misc Unsigned Bands Chords & Tabs

Version: 1 Type: Chords 0 ratings
1 star 2 stars 3 stars 4 stars 5 stars
comments

Disagree - Crumbs Chords

   
URL - http://planet.time.net.my/BukitBintang/azrulgoo/
Disagree is a Malaysian band, formed in 1995.. Their style is similar to Staind,
and I highly admire this song..

Disagree - Crumbs

This is my 1st time.. So, for the record, I found this by myself.
So, in other words, KALAU SALAH, KASI OPINION KAT norzaki_m@hotmail.com

Gsus
Big world 

Esus
says he wants to see the

D
light for once, 

Csus               Gsus
Well maybe if you try 

Esus
It's so sad 

D
babe don't look so sad 

Csus
I've got it wrong today 

Gsus               Esus

Csus                  D
And if she doesn't go your way

Csus                          D   
look up to blue skies and say hey 

Csus                          D
It's ok

*The song basically repeats itself.. The picking for the chords are easy
to figure out, so I won't waste my time lah..

Solo :
[ Tab from: http://www.guitartabs.cc/tabs/m/misc_unsigned_bands/disagree_crumbs_crd.html ]
E----------------------------------------------------------------------
B----------------------------------------------------------------------
G-------------4h5-----------7-5-4-------4h5------------4h5-5-----------
D--3/5-5--5h7-----5h7-5--4h5-4-4-5--5h7-----5h7-5---4h5----------------
A--------------------------------------------------7-------------------
E----------------------------------------------------------------------

E----------------------------------------------------------------------
B----------8-7^--------8-7^--------------------------------------------
G--4-4-5-7-------4-5-7-------4-5-7-5-4^------4h5-----------7-5-4-------
D----------------------------------------5h7-----5h7-5--4h5-4-4-5------
A----------------------------------------------------------------------
E----------------------------------------------------------------------

E----------------------------------------------------------------------
B----------------------------------------------------------------------
G-----7-5-4------7-5-4-------------------------------------------------
D--4h5-4-4-5--4h5-4-4-5--4h5h7-4h7-5-----------------------------------
A----------------------------------------------------------------------
E----------------------------------------------------------------------


This is my way, so if any suggestions, my email is norzaki_m@hotmail.com

- The Zackmister has spoken -
Comments