Misc Unsigned Bands - Die Rhythmus Schnitzel - Bier Chords & Tabs

 

Die Rhythmus Schnitzel - Bier Chords & Tabs

Misc Unsigned Bands Chords & Tabs

Version: 1 Type: Tab

Die Rhythmus Schnitzel - Bier Tab

Artist: Die Rhythmus Schnitzel
Titel:	Bier
Album:	k.A.  

	
Intro/Verse:

	e|----------------------------------------------------------|
	B|--6x6--66-44444444------00-000----------------------------|
5x	G|--6x6--66-44444444-0000-22-222----------------------------|
	D|--6x6--66-44444444-2222-22-222----------------------------|  
	A|--4x4--44-22222222-2222-----------------------------------|
	E|----------------------------------------------------------|

	e|----------------------------------------------------------|
	B|--6x6--66-44444444------00-000-3x3x3x3x3x3---555-3/2-0----|
1x	G|--6x6--66-44444444-0000-22-222-2x2x2x2x2x2----------------|
	D|--6x6--66-44444444-2222-22-222----------------------------|  
	A|--4x4--44-22222222-2222-----------------------------------|
	E|----------------------------------------------------------|

Refrain:
[ Tab from: http://www.guitartabs.cc/tabs/m/misc_unsigned_bands/die_rhythmus_schnitzel_bier_tab.html ]
	e|----------------------------------------------------------|
	B|---444444-000000--------444454----------------------------|
	G|---444444-222222-000000-444444----------------------------|
	D|---444444-222222-222222-444444----------------------------|  
	A|---222222--------222222-222224----------------------------|
	E|----------------------------------------------------------|

"cooler Zwischenteil":

	e|----------------------------------------------------------|
	B|---444444445555444-00-00----------------------------------|
3x	G|---444444444444444-22-22-000000---------------------------|
	D|---444444444444444-22-22-222222---------------------------|  
	A|---222222222222222-------222222---------------------------|
	E|----------------------------------------------------------|

Zusammenfassung:

Intro 			2x
Verse 			4x
Refrain			4x
"cooler Zwischenteil"	3x
Verse			4x
Refrain			4x
Verse			4x
Refrain			4x
Refrain			4x
"cooler Zwischenteil"	4x