Misc Unsigned Bands - Death By Monkeys - My Best Friends A Terrorist Chords & Tabs

 

Death By Monkeys - My Best Friends A Terrorist Chords & Tabs

Misc Unsigned Bands Chords & Tabs

Version: 1 Type: Tab 0 ratings
1 star 2 stars 3 stars 4 stars 5 stars
comments

Death By Monkeys - My Best Friends A Terrorist Tab

Song: My Best Friend A Terrorist
Band: Death by Monkeys
Tuning: Standard
Written By: Andrew Rivett & Chris French

This is a funny song that me and my friend wrote for our band. I hope you like it

It is essentially the same riff played over and over, one measure after each line.

e|---------|---------|---------|---------|
B|---------|---------|---------|---------|
G|---------|---------|---------|---------|
D|---------|---------|---------|---------|
A|-4-4-4-4-|-6-6-6-6-|-8-8-8-8-|---------|
E|-2-2-2-2-|-4-4-4-4-|-6-6-6-6-|-4-4-4-4-|

For the final verse play;
[ Tab from: http://www.guitartabs.cc/tabs/m/misc_unsigned_bands/death_by_monkeys_my_best_friends_a_terrorist_tab.html ]
e|---------|---------|---|---|
B|---------|---------|---|---|
G|---------|---------|---|---|
D|---------|---------|---|---|
A|-4-4-4-4-|-6-6-6-6-|-4-|-4-|
E|-2-2-2-2-|-4-4-4-4-|-2-|-2-|

Lyrics

Verse 1:

My best friend went to Iraq
To meet his friend he called Sadam
He gave him C4 and stuff
To blow up the Prime Minister

Chorus:

My best friends a terrorist
My best friends a pessimist
My best friends an anrchist
And he blew himself apart

Oh man this really sucks
He owed me twenty bucks
He had the keys to my truck
Then he went and blew himself apart

Verse 2:

They stole a grannys cars
They filled it with C4
Drove it to the PMs house
When he walked over they were blown apart

Chorus

Verse 3:

Shrapnel flew through the air
It hit a poler bear
And know
He's
Dead

Hope you like this song

Cheers!
Comments