Misc Unsigned Bands - Deadline36 - The Crypt Chords & Tabs

 

Deadline36 - The Crypt Chords & Tabs

Misc Unsigned Bands Chords & Tabs

Version: 1 Type: Tab 0 ratings
1 star 2 stars 3 stars 4 stars 5 stars
comments

Deadline36 - The Crypt Tab

   
www.Freewebs.com/Deadline36

Song-The Crypt
Band-DeadLine36
Cd-36.Demo
Tuning-E.B.G.D.A.E
Song Written By By Bryan Silva
Tabed By Bryan Silva

*=Palm Mute
/=Slide Down
B=Bend
P=Pull off
H=Hammer

[ Tab from: http://www.guitartabs.cc/tabs/m/misc_unsigned_bands/deadline36_the_crypt_tab.html ]
Intro}
E]--------------------------------------------------------------------]
B]--------------------------------------------------------------------]
G]--------------------------------------------------------------------]
D]---------------------------------------------------2-0-------0------]
A]-----------0-2---2--1---1--0---0-----------0-2---2-----2---2--------]
E]-12/-0-2-3-----3------2------1----9/-0-2-3-----3---------3----------]
       * * * *   *      *    * *  *    * * * *   * * *   * * * 

Verse}
E]------------------------------]
B]------------------------------]
G]------------------------------]
D]--2--5-77-7-2--5-77-5-7-5-4---]
A]--2--5-77-7-2--5-77-5-7-5-4---]
E]--0--3-55-5-0--3-55-3-5-3-2---]
                      * * * *
Chorus}
E]-------------------------------------]
B]-------------------------------------]
G]-------------------------------------]
D]--2---5---2---7---2---5--------------]
A]--2---5---2---7---2---5---5-3-2-3----]
E]--0-0-3-0-0-0-5-0-0-0-3-0-5-3-2-3----]
      *   *   *   *   *   * * * * *
Order=
Intro=x2
verse=x2
Chorus=x2
Intro=X2
ChorusX2
VerseX2
ChorusX2
Intro=X4
                 Thats all Folks..........................
Comments