Misc Unsigned Bands - Cordless - Rock Will Never Die Chords & Tabs

 

Cordless - Rock Will Never Die Chords & Tabs

Misc Unsigned Bands Chords & Tabs

Version: 1 Type: Bass Tab 0 ratings
1 star 2 stars 3 stars 4 stars 5 stars
comments

Cordless - Rock Will Never Die Bass Tab

this is one of my very own songs written by my self and my guitar man



Intro/verse         
G--------6------6--------------------------------------------------|
D--7---7--7-5-7----------------------------------------------------|
A------------------------------------------------------------------|
E------------------------------------------------------------------|



Chorus
|----------|
|777777777-| play through out chorus
|----------|
|----------|


[ Tab from: http://www.guitartabs.cc/tabs/m/misc_unsigned_bands/cordless_rock_will_never_die_btab.html ]
During Solo
G--------6------6------------------------------------------------|
D--7---7--7-5-7--------------------------------------------------|
A----------------------------------------------------------------|
E----------------------------------------------------------------|




Outro
G--------6------6~~~~~~~~~~~~~~~~~~~~~~~~~~~~~~~~~---------------|
D--7---7--7-5-7--------------------------------------------------|
A----------------------------------------------------------------|
E----------------------------------------------------------------|
Comments