Misc Unsigned Bands - Champion - Miles To Go Chords & Tabs

 

Champion - Miles To Go Chords & Tabs

Misc Unsigned Bands Chords & Tabs

Version: 1 Type: Tab 0 ratings
1 star 2 stars 3 stars 4 stars 5 stars
comments

Champion - Miles To Go Tab

Champion is an american melodic hardcore band. That's all I currently know about them
(besides the fact that they rock).

Champion - Miles To Go

Tabs by Punkwolf

Sorry, I only felt like tabbing one of the guitars.

Intro
e|-------------------|-------------------------|
B|-------------------|-------------------------|
G|--8-7-8-10-8-------|----------8-8-8-8--------|
D|--8-7-8-10-8-8-10--|--1010~---8-8-8-8-8-8-8--|
A|--6-5-6--8-6-8-10--|--1010~---6-6-6-6-8-8-8--|
E|-------------6--8--|---8-8~-----------6-6-6--|

Verse
e|-------------------------------------------------------------|
B|-------------------------------------------------------------|
G|--8-8-7-7-10-10-8-8------------------------------------------|
D|--8-8-7-7-10-10-8-8-10-10-10-10-10-10-10-10-6-6-6-6-6-6-6-6--|
A|--6-6-5-5--8--8-6-6-10-10-10-10-10-10-10-10-6-6-6-6-6-6-6-6--|
E|---------------------8--8--8--8--8--8--8--8-4-4-4-4-4-4-4-4--|

e|--------------------------------|
B|-------------*-----***-***-***--|
G|------*----7-7-7-8-888-888-888--|
D|--10-10-10-7-7-7-8-888-888-888--|
A|--10-10-10-5-5-5-6-666-666-666--|
E|---8--8--8----------------------|

e|------------------------------------------------------------------------|
B|------------------------------------------------------------------------|
G|--12-12-12-12-12-12-13-13-13-13-13-13-15-15-15-15-15-15-13-13-13-13-13--|
D|------------------------------------------------------------------------|
A|--10-10-10-10-10-10-11-11-11-11-11-11-13-13-13-13-13-13-11-11-11-11-11--|
E|------------------------------------------------------------------------|

e|--------------------------------|
B|-------------*-----***-***-***--|
G|------*----7-7-7-8-888-888-888--|
D|--10-10-10-7-7-7-8-888-888-888--|
A|--10-10-10-5-5-5-6-666-666-666--|
E|---8--8--8----------------------|
[ Tab from: http://www.guitartabs.cc/tabs/m/misc_unsigned_bands/champion_miles_to_go_tab.html ]
Chorus
e|----------------------------------------------------------|
B|----------------------------------------------------------|
G|---*-*-*-*-*-*--------------------------------------------|
D|--101010101010-6-6-6-6-6-6-8-8-8-8-8-8-10-10-10-10-10-10--|
A|--101010101010-6-6-6-6-6-6-8-8-8-8-8-8-10-10-10-10-10-10--|
E|---8-8-8-8-8-8-4-4-4-4-4-4-6-6-6-6-6-6--8--8--8--8--8--8--|
Play whole 3 times

Play this when starting 2nd verse, then it's the same as the first
e|---------------------------------------------------|
B|---------------------------------------------------|
G|---------------------------------------------------|
D|--10--10--10-10-10-10-10-10-10-10-6-6-6-6-6-6-6-6--|
A|--10--10--10-10-10-10-10-10-10-10-6-6-6-6-6-6-6-6--|
E|---8---8---8--8--8--8--8--8--8--8-4-4-4-4-4-4-4-4--|

Bridge
e|----------------------------------|
B|----------------------------------|
G|------------------8-8-8-10-10-10--|
D|--8-10~----8-10~--8-8-8-10-10-10--|
A|--8-10~----8-10~--6-6-6--8--8--8--|
E|--6--8~----6--8~------------------|
Play whole 2 times

Outro
e|---------------------------------------------------|
B|---------------------------------------------------|
G|-------*-*-*------*-*-*------*-*-*-8-8-8-10-10-10--|
D|--8-10101010-8-10101010-8-10101010-8-8-8-10-10-10--|
A|--8-10101010-8-10101010-8-10101010-6-6-6--8--8--8--|
E|--6--8-8-8-8-6--8-8-8-8-6--8-8-8-8-----------------|
Play whole 2 times

e|------------------------------------------------------------------|
B|------------------------------------------------------------------|
G|--10-12-12-12-12-10-12-12-12-12-10-12-12-12-12-15-15-15-17-17-17--|
D|------------------------------------------------------------------|
A|---8-10-10-10-10--8-10-10-10-10--8-10-10-10-10-13-13-13-15-15-15--|
E|------------------------------------------------------------------|
Play whole 2 times

Ending
e|-----------------------------------------------|
B|------------------------------------*----------|
G|--10-12~----12-15~----15-17~-----171717-15-17--|
D|-----------------------------------------------|
A|---8-10~----10-13~----13-15~-----151515-13-15--|
E|-----------------------------------------------|

* - Palm mute
~ - let ring

Song Structure:
Intro
Verse
Chorus
Intro
Verse
Chorus
Intro
Bridge
Outro
Ending
Comments