Misc Unsigned Bands - Caelum Ferrum - Ad Infinitum Forevermore Chords & Tabs

 

Caelum Ferrum - Ad Infinitum Forevermore Chords & Tabs

Misc Unsigned Bands Chords & Tabs

Version: 1 Type: Tab

Caelum Ferrum - Ad Infinitum Forevermore Tab

   
Just a little song i wrote

p=pull off
h=hammer on
/=slide
b=bend
v=vibrate (vibrato)
.=plam mute
x=mute

Intro


e|-------------------|
B|-------------------|
G|-5555--7777--8888--|
D|-5555--7777--8888--| x3
A|-3333--5555--6666--|
E|-------------------|
   ....  ....  ....

e|----------------------------|
B|----------------------------|
G|-5-7-8-7-10-8-7-5-5-4-5-7-5-|
D|-5-7-8-7-10-8-7-5-5-4-5-7-5-|
A|-3-5-6-5-8--6-5-3-3-2-3-5-3-|
E|----------------------------|

Verse

e|-000000-00-2222-22-4444-44-7777-77-|
b|-000000-00-2222-22-4444-44-7777-77-|
G|-000000-00-2222-22-4444-44-7777-77-|  x4
D|-222222-22-4444-44-6666-66-9999-99-|
A|-222222-22-4444-44-6666-66-9999-99-|
e|-000000-00-2222-22-4444-44-7777-77-|
   ......    ....    ....    ....


e|-7-6-4-2-|
b|-7-6-4-2-|
G|-7-6-4-2-|
D|-9-8-6-4-|
A|-9-8-6-4-|
e|-7-6-4-2-|


Chorus
[ Tab from: http://www.guitartabs.cc/tabs/m/misc_unsigned_bands/caelum_ferrum_ad_infinitum_forevermore_tab.html ]
e|-3333/6-6666-1111/4-4/33-|
b|-3333/6-6666-1111/4-4/33-|
G|-3333/6-6666-1111/4-4/33-|  x3
D|-5555/8-8888-3333/6-6/55-|
A|-5555/8-8888-3333/6-6/55-|
e|-3333/6-6666-1111/4-4/33-|

e|---------------|
B|---------------|
G|---------------|
D|-8-7-3-3-3/5-5-|
A|-8-7-3-3-3/5-5-|
e|-6-5-1-1-1/3-3-|

Solo/interlude

e|-------------------------------------------------------------------|
B|-----------------------------------------------------15------------|
G|-------------------------------15------------12-14-15--15-14-12-10-|
D|---------15------------12-14-15--15-14-12-10-----------------------|
A|-12-14-15--15-14-12-10---------------------------------------------|
E|-------------------------------------------------------------------|

e|-12-14-15-12-14-15vv-15p14-15p14-10-12b-12vvv-|
B|----------------------------------------13vvv-|
G|----------------------------------------------|
D|----------------------------------------------|
A|----------------------------------------------|
E|----------------------------------------------|

See ya