Misc Unsigned Bands - Bombing Baghdad - Last Try Chords & Tabs

 

Bombing Baghdad - Last Try Chords & Tabs

Misc Unsigned Bands Chords & Tabs

Version: 1 Type: Bass Tab 0 ratings
1 star 2 stars 3 stars 4 stars 5 stars
comments

Bombing Baghdad - Last Try Bass Tab

I am in a band called Bombing Baghdad. I recently wrote this bass line. It is
the easiest thing i have ever writtin. It is all on one string which should make
it a good beginner song.
 Verses

----------------------------------------------------|
----------------------------------------------------|
----------------------------------------------------|
----------------------------------------------------|
----------------------------------------------------|
--0--7--5--4--5--4--0-------------------------------| (repeat untill bridge)

Bridge
[ Tab from: http://www.guitartabs.cc/tabs/m/misc_unsigned_bands/bombing_baghdad_last_try_btab.html ]
----------------------------------------------------|
----------------------------------------------------|
----------------------------------------------------|
----------------------------------------------------|
----------------------------------------------------|
--0--7--5--4--5--4--0--0--7--5--4--5--4--7----------|(x4)

Chorus

----------------------------------------------------|
----------------------------------------------------|
----------------------------------------------------|
----------------------------------------------------|
----------------------------------------------------|
--9--7--5--5--7--9--7--5--9--7--5--7--9--7--5--0----|  (repeat untill next verse)

Last chorus

---------------------------------------------------|
---------------------------------------------------|
---------------------------------------------------|
---------------------------------------------------|
---------------------------------------------------|
--9--7--5--5--7--9--12--9--9--7--5--7--9--7--5--0--|
Comments