Misc Unsigned Bands - Blue Year - Next Time Chords & Tabs

 

Blue Year - Next Time Chords & Tabs

Misc Unsigned Bands Chords & Tabs

Version: 1 Type: Tab 0 ratings
1 star 2 stars 3 stars 4 stars 5 stars
comments

Blue Year - Next Time Tab

     This is my first tab I have ever put on the internet so cut me some slack. Alright
this is my bands tab for "Next Time". I made it up about two weeks ago you will like it
if you can keep up.

PM - Palm Mute
LR - Let Ring
/ - slide

e----------------------------------------------------------|
B----------------------------------------------------------|
G----2-----2----------2-----2-------2-----2----------------|
D---2-2---2-0-2-0----0-0---0-------0-0---0-0-2-0-----------|Play This 2 Times
A--0---0-0-------20-0---0-0---0-2-0---0-0-------2-0--------|
E-0-----0----------2-----2-------2-----2-----------2/3-LR--|

e---------------------------------------------------------------------------|
B-2-222-22-22-2222---2-222-22-22-2222---------------------------------------|
G-2-222-22-22-2222---2-222-22-22-2222---------------------------------------|
D---------------------------------------------------------------------------|
A---------------------------------------------------------------------------|
E---------------------------------------------------------------------------|

e---------------------------------------------------------------------------|
B---------------------------------------------------------------------------|
G-2-222-22-22-2222----------------------------------------------------------|
D-2-222-22-22-2222----------------------------------------------------------|
A---------------------------------------------------------------------------|
E---------------------------------------------------------------------------|

e---------------------------------------------------------------------------|
B---------------------------------------------------------------------------|
G---------------------------------------------------------------------------|
D-2-222-22-22-2222----------------------------------------------------------|
A-2-222-22-22-2222----------------------------------------------------------|
E---------------------------------------------------------------------------|

e---------------------------------------------------------------------------|
B-2-222-22-22-2222---2-222-22-22-2222---------------------------------------|
G-2-222-22-22-2222---2-222-22-22-2222---------------------------------------|
D---------------------------------------------------------------------------|
A---------------------------------------------------------------------------|
E---------------------------------------------------------------------------|
[ Tab from: http://www.guitartabs.cc/tabs/m/misc_unsigned_bands/blue_year_next_time_tab.html ]
e---------------------------------------------------------------------------|
B---------------------------------------------------------------------------|
G-2-222-22-22-2222----------------------------------------------------------|
D-2-222-22-22-2222----------------------------------------------------------|
A---------------------------------------------------------------------------|
E---------------------------------------------------------------------------|

e---------------------------------------------------------------------------|
B---------------------------------------------------------------------------|
G---------------------------------------------------------------------------|
D-2-222-22-22-2222----------------------------------------------------------|
A-2-222-22-22-2222----------------------------------------------------------|
E---------------------------------------------------------------------------|

e---------------------------------------------------------------------------|
B-2-222-2-------------------------------------------------------------------|
G-2-222-2---2-222-2-------------2-222-2-------------------------------------|
D-----------2-222-2---2-222-2---2-222-2-------------------------------------|
A---------------------2-222-2-----------------------------------------------|
E---------------------------------------------------------------------------|

e---------------------------------------------------------------------------|
B-2-222-2-------------------------------------------------------------------|
G-2-222-2---2-222-2-------------2~--LR--------------------------------------|
D-----------2-222-2---2-222-2---2~--LR--------------------------------------|
A---------------------2-222-2-----------------------------------------------|
E---------------------------------------------------------------------------|

PLAY THE INTRO TWICE AGAIN EXCEPT DONT PALM MUTE IT!!!

e---------------------------------------------------------------------------|
B-2222222222222222----------------------------------------------------------|
G-2222222222222222---2222222222222222----------------------2222222222222222-|
D--------------------2222222222222222---2222222222222222---2222222222222222-|
A---------------------------------------2222222222222222--------------------|
E---------------------------------------------------------------------------|
PLAY THE ABOVE TWICE 2 Xs

e---------------------------------------------------------------------------|
B-2-2-2-2-2-2-2-2---2-LR----------------------------------------------------|
G-2-2-2-2-2-2-2-2---2-LR----------------------------------------------------|
D---------------------------------------------------------------------------|
A---------------------------------------------------------------------------|
E---------------------------------------------------------------------------|
Comments