Misc Unsigned Bands - Bloodwork - Send The Pain Chords & Tabs

 

Bloodwork - Send The Pain Chords & Tabs

Misc Unsigned Bands Chords & Tabs

Version: 1 Type: Tab 0 ratings
1 star 2 stars 3 stars 4 stars 5 stars
comments

Bloodwork - Send The Pain Tab

Tuning-one full step down

its my band. PM-.,Bend-^.

Intro x4
--------------------------------
--------------------------------
--------------------------------
--------------------------------
-  2 - 2 - 2 - 2 - 3 - 3 - 3 - 3
-0 - 0 - 0 - 0 - 1 - 1 - 1 - 1 -
 . . . . . . . . . . . . . . . . 

chorus riff (the whole thing x2)
-------------------     |-------------------       
-------------------     |-------------------       
-------------------   x3|-------------------   x1  
-22222222222222----     |-22222222222222----       
-22222222222222---3     |-22222222222222---5       
-00000000000000-1--     |-00000000000000-3-- 
  .. .. . .. ..            .. .. . .. ..
---------------------------------
---------------------------------
---------------------------------   x1
-77777777777777777777777777777777
-77777777777777777777777777777777
-55555555555555555555555555555555      
  .. .. . .. .. . .. .. . .. .. .

verse riff x6
-------------------------------
-------------------------------
-------------------------------
-------------------------------
- 2 2 2 2 4 5 3 2 2 2 2 4 5 7 5
-0 0 0 0 2 3 1 0 0 0 0 2 3 5 3-

Then play chorus x2 and then verse x6 again,chorus x2.
[ Tab from: http://www.guitartabs.cc/tabs/m/misc_unsigned_bands/bloodwork_send_the_pain_tab.html ]
solo.
------------------------------------------------------------------
------------------------------------------------------------------
--------------7--------------7-10-9-10-7-10-7-10-9-10-7-10-7-10-9-
-10-9-10-7-10---10-9-10-7-10--------------------------------------
------------------------------------------------------------------
------------------------------------------------------------------

------------------------------------------------------------------
------------------------------------------------------------------
------------------------------7-10-9-10-7-10-7-10-9-10-7-10-7-10-9
-10-9-10-7-10---10-9-10-7-10--------------------------------------
--------------8--------------8------------------------------------
------------------------------------------------------------------ 

---------------------------------------------------------------------
---------------------------------------------------------------------
--------------7---------------10----------------12----------------10-
-10-9-10-7-10---12-10-12-9-12----15-14-15-12-15----14-12-14-10-14----
---------------------------------------------------------------------
---------------------------------------------------------------------

---------------------------------------------------------------
---------------------------------------------------------------
--------------------------------------------7-10-9^------------
-10-9-10-7-10---10-9-10-7-10---10-9-10-7-10--------------------
--------------8--------------7---------------------------------
---------------------------------------------------------------

play intro riff x2,chorus x2.

outro
----------------------------
----------------------------
----------7--9------7-10----
-9-7-10-9------9-66---------
----------------------------
----------------------------
Comments