Misc Unsigned Bands - Big And Rich - Save A Horse Ride A Cowboy Chords & Tabs

 

Big And Rich - Save A Horse Ride A Cowboy Chords & Tabs

Misc Unsigned Bands Chords & Tabs

Version: 2 Type: Tab 0 ratings
1 star 2 stars 3 stars 4 stars 5 stars
comments

Big And Rich - Save A Horse Ride A Cowboy Tab

great song for anyone who is beginning to learn how to play guitar... its fun, a crowd 
powerful, and most of all...EASY!!!!


[song begins with a hysterical "drunk riding melody" beginning then the banjo hits and 
song begins to rip...]

b= bend to
h= hammer on
hf= hammer off
/= slide up to
m= palm mute
x= mute

Intro/Chorus
e|------------------------------------------|
b|------------------------------------------|
g|-0h1--0h1-0h1-0----0h2--0h2-0h2-0---------|      [x4]
d|-0h2--0h2-0h2-0----0h2--0h2-0h2-0---------|
a|-0h2--0h2-0h2-0---------------------------|
E|------------------------------------------|

Verse I [Well, I walk into the room...]
e|---------------------------------------|
b|---------------------------------------|
g|---------------------------------------|
d|-------------------m2--2/4--4/5--5-----|    [x3]
a|-m2--2/4--4/5--5--m0--0----0----0------|
E|-m0--0----0----0-----------------------|

e|------------------------------------------|
b|------------------------------------------|
g|------------------------------------------|
d|-------------------m2--2/4--4--2----2-2---|    [x1]
a|-m2--2/4--4/5--5--m0--0----0--0----0-0----|
E|-m0--0----0----0--------------------------|

Chorus ['Cause I saddle up my horse...]
e|------------------------------------------|
b|------------------------------------------|
g|-0h1--0h1-0h1-0----0h2--0h2-0h2-0---------|      [x3]
d|-0h2--0h2-0h2-0----0h2--0h2-0h2-0---------|
a|-0h2--0h2-0h2-0---------------------------|
E|------------------------------------------|

e|-----------------------------|
b|-----------------------------|
g|-0--1------0h2--0h2-0h2-0----|
d|-0--2------0h2--0h2-0h2-0----|   [2x]
a|-0--2------------------------|
E|-------3b4-------------------|

Verse II [Well I don't give a dang about nothing...]
e|---------------------------------------|
b|---------------------------------------|
g|---------------------------------------|
d|-------------------m2--2/4--4/5--5-----|    [x1]
a|-m2--2/4--4/5--5--m0--0----0----0------|
E|-m0--0----0----0-----------------------|

e|------------------------------------------|
b|------------------------------------------|
g|------------------------------------------|
d|--------------------2---------------------|    [x1]
a|-m2--2/4--4/5--5---0----------------------|
E|-m0--0----0----0--------------------------|

e|---------------------------------------|
b|---------------------------------------|
g|---------------------------------------|
d|-------------------m2--2/4--4/5--5-----|    [x1]
a|-m2--2/4--4/5--5--m0--0----0----0------|
E|-m0--0----0----0-----------------------|

e|------------------------------------------|
b|------------------------------------------|
g|------------------------------------------|
d|-------------------m2--2/4--4--2----2-2---|    [x1]
a|-m2--2/4--4/5--5--m0--0----0--0----0-0----|
E|-m0--0----0----0--------------------------|
[ Tab from: http://www.guitartabs.cc/tabs/m/misc_unsigned_bands/big_and_rich_save_a_horse_ride_a_cowboy_tab_ver_2.html ]
Chorus [And I saddle up my horse...]
e|------------------------------------------|
b|------------------------------------------|
g|-0h1--0h1-0h1-0----0h2--0h2-0h2-0---------|      [x3]
d|-0h2--0h2-0h2-0----0h2--0h2-0h2-0---------|
a|-0h2--0h2-0h2-0---------------------------|
E|------------------------------------------|

e|-----------------------------|
b|-----------------------------|
g|-0--1------0h2--0h2-0h2-0----|
d|-0--2------0h2--0h2-0h2-0----|    [2x]
a|-0--2------------------------|
E|-------3b4-------------------|

~~~~~~~~~~~~~~~~~~~~~~~~~~~~~~~~~~~~~~~~~~~~~~~~~~~~~~~~~~~~~~~~~~~~~~~~~~~~~

SOLO-----> Guitar I=Lead   Guitar II=Rhythm
Guitar I
e|------------------------------12----15/17-15-12--15hf14hf12h-----------------------|
b|------15hf12---12-------15/17---15--------------------------15-15hf14hf12----------|
g|14/16-------14---14/16---------------------------------------------------14hf12----|
d|-----------------------------------------------------------------------------------|
a|-----------------------------------------------------------------------------------|
E|-----------------------------------------------------------------------------------|

e|-12----12----12----12-------|
b|-12----12----12----12-------|
g|-14/16-14/16-14/16-14/16----|
d|----------------------------|
a|----------------------------|
E|----------------------------|

Guitar II [Behind Guitar Solo and Violin Solo]
e|--------------------------------------------------|
b|--------------------------------------------------|
g|-0h1--0h1-0h1-0----0h2--0h2-0h2-0-----------------|      [x4]  2 for the guitar solo
d|-0h2--0h2-0h2-0----0h2--0h2-0h2-0-----------------|              2 for the violin solo
a|-0h2--0h2-0h2-0-----------------------------------|
E|--------------------------------------------------|

~~~~~~~~~~~~~~~~~~~~~~~~~~~~~~~~~~~~~~~~~~~~~~~~~~~~~~~~~~~~~~~~~~~~~~~~~~~~~

Breakdown [I'm a thoroughbread, that's what she said...]
{this is played very low and muted}

e|-----------------------------------|
b|-----------------------------------|
g|-1-1--1-1-1-x-x--2-2--2-2-2--x-x---|
d|-2-2--2-2-2-x-x--2-2--2-2-2--x-x---|    [x7]
a|-2-2--2-2-2-x-x--0-0--0-0-0--x-x---|
E|-0-0--0-0-0-------------------x-x--|

e|-----------------------------------|
b|-----------------------------------|
g|-1-1--1-1-1-x-x--2-2---------------|
d|-2-2--2-2-2-x-x--2-2---------------|    [x1]
a|-2-2--2-2-2-x-x--0-0---------------|
E|-0-0--0-0-0------------------------|

Chorus [And I saddle up my horse...]

e|------------------------------------------|
b|------------------------------------------|
g|-0h1--0h1-0h1-0----0h2--0h2-0h2-0---------|      [x3]
d|-0h2--0h2-0h2-0----0h2--0h2-0h2-0---------|
a|-0h2--0h2-0h2-0---------------------------|
E|------------------------------------------|

e|-------------------------------------|
b|-------------------------------------|
g|-0--1--0h1-0h1-0--0h2--0h2-0h2-0-----|
d|-0--2--0h2-0h2-0--0h2--0h2-0h2-0-----|    [x3]
a|-0--2--0h2-0h2-0---------------------|
E|-------------------------------------|

e|----------|
b|----------|
g|-0-1------|
d|-0-2------|
a|-0-2------|
E|----------|

...i'm spent...play on my young padawans!!!
Comments