Misc Unsigned Bands - Bananaband - Pwn Bucket Chords & Tabs

 

Bananaband - Pwn Bucket Chords & Tabs

Misc Unsigned Bands Chords & Tabs

Version: 1 Type: Bass Tab

Bananaband - Pwn Bucket Bass Tab

                                      pwn bucket                                    



                                                                         
G||----------------------------------|----------------------------------|
D||----------------------------------|----------------------------------|
A||----------------------------------|----------------------------------|
D||--9-9-9-9-9-9-9-9-7-5-5-5-5-5-5-5-|--5-6-7-7-7-7-7-7-7-7-5-3-0-0-0-0-|


                                                                      
----------------------------------|----------------------------------|
----------------------------------|----------------------------------|
----------------------------------|----------------------------------|
--9-9-9-9-9-9-9-9-7-5-5-5-5-5-5-5-|--5-6-7-7-7-7-7-7-7-7-5-3-0-0-0-0-|

[ Tab from: http://www.guitartabs.cc/tabs/m/misc_unsigned_bands/bananaband_pwn_bucket_btab.html ]
                                                                      
----------------------------------|----------------------------------|
----------------------------------|----------------------------------|
----------------------------------|----------------------------------|
--9-9-9-9-9-9-9-9-7-5-5-5-5-5-5-5-|--5-6-7-7-7-7-7-7-7-7-5-3-0-0-0-0-|


                                                                      
----------------------------------|----------------------------------|
----------------------------------|----------------------------------|
----------------------------------|----------------------------------|
--9-9-9-9-9-9-9-9-7-5-5-5-5-5-5-5-|--5-6-7-7-7-7-7-7-7-7-5-3-0-0-0-0-|


                                                                      
----------------------------------|----------------------------------|
----------------------------------|----------------------------------|
----------------------------------|----------------------------------|
--9-9-9-9-9-9-9-9-7-5-5-5-5-5-5-5-|--5-6-7-7-7-7-7-7-7-7-5-3-0-0-0-0-|


                                                                           
----------------------------------|----------------------------------|---||
----------------------------------|----------------------------------|---||
----------------------------------|----------------------------------|---||
--9-9-9-9-9-9-9-9-7-5-5-5-5-5-5-5-|--5-6-7-7-7-7-7-7-7-7-5-3-0-0-0-0-|---||