Misc Unsigned Bands - Backlash - Sewn On Smile Chords & Tabs

 

Backlash - Sewn On Smile Chords & Tabs

Misc Unsigned Bands Chords & Tabs

Version: 1 Type: Tab 0 ratings
1 star 2 stars 3 stars 4 stars 5 stars
comments

Backlash - Sewn On Smile Tab

   
hi guys. its me courtney from the band. this is my 1st tab so why not do one of our own songs. hope u enjoy.

Main riff:
e|---------------------------------|
B|---------------------------------|
G|---------------------------------|
D|-22--------------22--------------|
A|-22-2-02-3-2-0-2-22-2-02-3-7-6---|
E|-00--------------00--------------|

e|---------------------------------|
B|---------------------------------|
G|---------------------------------|
D|-22--------------22--------------|
A|-22-2-02-3-2-0-2-22-2-02-3-2-020-|
E|-00--------------00-------------3|



Verse:
e|---------------------------------|
B|---------------------------------|
G|----9------7----5---4-2----------|
D|----99-----77---55--4-2-5-4------|
A|----79-----57---35--2-0-5-4------|
E|-00--7-000--5-00-3------3-2------|

Pre-Chorus:
e|---------------------------------|
B|---------------------------------|
G|----4-----5----4-----4-2---------|
D|-22-4-222-5-22-4-222-4-2---------|
A|-22-2-222-3-22-2-222-2-0---------|
E|-00---000---00---000-------------|

Chorus:
e|---------------------------------|
B|---------------------------------|
G|----5-4----9-8----5-4------------|
D|-2--5-4-2--9-8-2--5-4-2--5-5-5---|
A|-2--3-2-2--7-6-2--3-2-2--5-5-5---|
E|-00-----00-----00-----0-030303---|

solo:
   B^ B^ B^ B^ 1/2       B^                     B^ B^
e|---------------------------------------------------|
B|-15-15-15-15-15--12-14-15-151412--12-1412--12-14-14|
G|--------------------------------14-------14---14-14|
D|---------------------------------------------------|
A|---------------------------------------------------|
E|---------------------------------------------------|

e|---------------------------------------------------|
B|---------------------------------------------------|
G|12------12--------121412--12--------------12--12---|
D|---14-12--14-12-14------14--14---12--12-14--14-----|
A|-------------------------------14--14--------------|
E|---------------------------------------------------|
[ Tab from: http://www.guitartabs.cc/tabs/m/misc_unsigned_bands/backlash_sewn_on_smile_tab.html ]
            B^       (X3)          
e|-------------|------------|------------------------|
B|---12--12-15-|107-97-97--7|9/11-11-11-9--9---------|
G|-14--14------|----------9-|------------12-12-11-12-|
D|-------------|------------|------------------------|
A|-------------|------------|------------------------|
E|-------------|------------|------------------------|
                  
                   (X4)     whammy bar
e|------------|------------|----7/\/\/\/\------------|
B|------------|875875875-10|-------------------------|
G|-11-9-11----|------------|-------------------------|
D|---------12-|------------|-------------------------|
A|------------|------------|-------------------------|
E|------------|------------|-------------------------|


e|-1715141514-1715141514-1715141514-1715141514-------|
B|---------------------------------------------------|
G|---------------------------------------------------|
D|---------------------------------------------------|
A|---------------------------------------------------|
E|---------------------------------------------------|


e|-1917151715-1917151715-1917151715-1917151715-------|
B|---------------------------------------------------|
G|---------------------------------------------------|
D|---------------------------------------------------|
A|---------------------------------------------------|
E|---------------------------------------------------|

e|-2119171917-2119171917-2119171917-2119171917-------|
B|---------------------------------------------------|
G|---------------------------------------------------|
D|---------------------------------------------------|
A|---------------------------------------------------|
E|---------------------------------------------------|

   B^^^^^^^B^^^^
e|-22------17---17-17-----------------------------------|
B|----------------15-1515-------------------------------|
G|------------------------------------------------------|
D|------------------------------------------------------|
A|------------------------------------------------------|
E|------------------------------------------------------|


song order:
Bass intro
main riff x2
verse x4
Pre-chorus x2
Chorus x2
main riff x2
verse x4
pre-chorus x2
chorus x2
main riff x1
solo:---->rythm for solo is main riff x2 then chorus x2
main riff x2
verse x2
pre-chorus x2
chorus x2
main riff x1
Comments