Misc Unsigned Bands - Axels - Jesus Is My Personal Foot-stool Chords & Tabs

 

Axels - Jesus Is My Personal Foot-stool Chords & Tabs

Misc Unsigned Bands Chords & Tabs

Version: 1 Type: Tab 0 ratings
1 star 2 stars 3 stars 4 stars 5 stars
comments

Axels - Jesus Is My Personal Foot-stool Tab

   
This is my band the axels were a kind of grunge/new age rock band me and to of my m8s
witty[vocalist guitar2] jp[drummer] and me jlo[lead guitar and vocalist] we made the band
recently and we want to b known so i posted on this webby cuz the best tab site i know,
so this is the song i wrote its the first 1 i rote but it should sound rite.

Tuning:
e
B
G
D
A
e

TAB

intro: slow rock

|-2-2-2222----------0-0-0-0-----0-0-0-0-------3-|
|-3-3-3333-2-2-2222-1-1-0-0-----1-1-0-0-------3-|
|-2-2-2222-2-2-2222-0-0-0-0-0-0-0-0-0-0-0-0---4-|
|-0-0-0000-2-2-2222-2-2-2-2-0-0-2-2-2-2-0-0---5-|
|----------0-0-0000-3-3-2-2-2-2-3-3-2-2-2-2---5-|
|-------------------3-3-0-0-3-3-3-3-0-0-3-3---3-|

preverse: slight dist.

|-------------------------------------------------------8-|
|---------------------------------------------------------|
|---------------------------------------------------------|
|---------5555/2222---------55555555/2222222242524252-----|
|-5-x-3-x-3333/0000-5-x-3-x-33333333/0000000020302030-9---|
|-3-x-1-x-----------3-x-1-x---------------------------7---|

verse: slight dist.

|---------------------------------------------------|
|-2-2-2-3-3-3-2-2-2-3-3-3--2-2-2-3-3-3-2-2-2-3-3-3--|
|-2-2-2-2-2-2-2-2-2-2-2-22-2-2-2-2-2-2-2-2-2-2-2-22-|
|-2-2-2-0-0-0-2-2-2-0-0-02-2-2-2-0-0-0-2-2-2-0-0-02-|
|-0-0-0-------0-0-0--------0-0-0-------0-0-0--------|
|---------------------------------------------------|

chorus: slight dist.
[ Tab from: http://www.guitartabs.cc/tabs/m/misc_unsigned_bands/axels_jesus_is_my_personal_foot_stool_tab.html ]
|-----------------------------------------------------------------|
|-----------------------------------------------------------------|
|-----------------------------------------------------------------|
|-----------------7-7-7-7-7-7-7-7-----------------5-5-5-5-5-5-5-5-|
|-7-7-7-7-7-7-7-7-5-5-5-5-5-5-5-5-5-5-5-5-5-5-5-5-3-3-3-3-3-3-3-3-|
|-5-5-5-5-5-5-5-5-----------------3-3-3-3-3-3-3-3-----------------|

|-----------------------------------------------------------------|         
|-----------------------------------------------------------------|
|-----------------------------------------------------------------|
|-7-7-7-7-7-7-7-7-----------------5-5-5-5-5-5-5-5-----------------|
|-5-5-5-5-5-5-5-5-5-5-5-5-5-5-5-5-3-3-3-3-3-3-3-3-7-7-7-7-7-7-7-7-|
|-----------------3-3-3-3-3-3-3-3-----------------8-8-8-8-8-8-8-8-|

solo: slight dist.

|-540540750750420420320320-540540750750420420320320-|
|---------------------------------------------------|
|---------------------------------------------------|
|---------------------------------------------------|
|---------------------------------------------------|
|---------------------------------------------------|

|---------------------------------------------------|
|-5-4-0-5-4-0-7-5-0-7-5-0-4-2-0-4-2-0-3-2-0-3-2-0---|
|---------------------------------------------------|
|---------------------------------------------------|
|---------------------------------------------------|
|---------------------------------------------------|

order of playing:
[intro]
[preverse]
[verse]
[chorus]
[verse]
[chorus]
[solo]
[verse]
Comments