Misc Unsigned Bands - Authentic Tradition - The Getaway Chords & Tabs

 

Authentic Tradition - The Getaway Chords & Tabs

Misc Unsigned Bands Chords & Tabs

Version: 1 Type: Bass Tab 0 ratings
1 star 2 stars 3 stars 4 stars 5 stars
comments

Authentic Tradition - The Getaway Bass Tab

URL/ http://www.authtrad.pwp.blueyonder.co.uk/

This is the sick new song from new upcoming band Authentic Tradition

VERSE:

G-----------------------------------------------------------------------
D--0-0-0-0-0-0-0-2-3-3-3-3-3-3-3h5-5-5-5-5-5-5-7-7-7-7-5-7-5------------
A-----------------------------------------------------------------------
D-----------------------------------------------------------------------

G-----------------------------------------------------------------------
D--0-0-0-0-0-0-0-2-3-3-3-3-3-3-3h5-5-5-5-5-5-5-2-2-2-2-2-2-2------------
A-----------------------------------------------------------------------
D-----------------------------------------------------------------------
   
                                       -"take them away, take them away"
TIMES 2

CHORUS:
[ Tab from: http://www.guitartabs.cc/tabs/m/misc_unsigned_bands/authentic_tradition_the_getaway_btab.html ]
G--10-10-10-10-10-10-10-9-9-9-9-9-9-10-10-10-10-10-10-10-9-9-9-9-12-12-12
D--8--8--8--8--8--8--8--8-8-8-8-8-8-8--8--8--8--8--8--8--8-8-8-8-8--8--8
A-----------------------------------------------------------------------
D-----------------------------------------------------------------------

G-2-2-2-2-2-2-2-2-2-2-2-2-2-2-2-----5-5-5-5-5-5-5-5-5-5-5-5-5-5-5---2-----
D-0-0-0-0-0-0-0-0-0-0-0-0-0-0-0--2--3-3-3-3-3-3-3-3-3-3-3-3-3-3-3---0hold-
A-------------------------------------------------------------------------
D-------------------------------------------------------------------------

TIMES 2

VERSE: REPEAT

CHORUS: REPEAT

INTERLUDE:

G---------------------------------
D---------------------------------
A---------------------------------
D--0-5-7-8-7-5-7-5----------------  x 6

CHORUS: REPEAT

there you have it, a brilliant song by their incredibly talented bassist
Comments