Misc Unsigned Bands - Apothecary - Thatch Chords & Tabs

 

Apothecary - Thatch Chords & Tabs

Misc Unsigned Bands Chords & Tabs

Version: 1 Type: Bass Tab

Apothecary - Thatch Bass Tab

"Thatch" is a standard, original song by my band in strabane n.ireland Apothecary.
we are unsigned, but good we gig as much as possible and im subscripting our song.
we have copyright on the song so here it is...

standard tuning; Eadg....
intro is on guitar for 2 bars, then;
g-------------------------------------3h5--|
d---7-5-5h7---7-7---8-6-6h8---5-5-3h5------|
a-5----------------------------------------|play dis for da verse 2!
e----------5-5---6----------3-3-3----------|
[ Tab from: http://www.guitartabs.cc/tabs/m/misc_unsigned_bands/apothecary_thatch_btab.html ]
chorus
g------------------------------------------|
d------------------------------------------|
a-----2222---------------------2222--------|
e-2222----5555--3333-5533--2222----5555-3333-3333-210-210-|

reapeat intro/verse2
chorus
bass solo
g---------------13-14-16-8-6-4-----469--------8-4-6-------5h7/9-|A
d-12-7-8-5-12-12--------7-----8-8-5-------12\7-----8-8-5h7------|
a---------------------------------------------------------------|
e-------------------------------------9/10----------------------|

reapeat chorus   
end on;
g---------7-7-----|
d--------------0~-|
a-------5-5-------|
e-----------------|

~=lit ring /slide right \=slide left h=hammer-on www.theap.tk