Misc Unsigned Bands - A Minute Till Midnight - Bullet Belt Disco Chords & Tabs

 

A Minute Till Midnight - Bullet Belt Disco Chords & Tabs

Misc Unsigned Bands Chords & Tabs

Version: 1 Type: Tab 0 ratings
1 star 2 stars 3 stars 4 stars 5 stars
comments

A Minute Till Midnight - Bullet Belt Disco Tab

A Minute Till Midnight (New Band)
Bullet Belt Disco
Tabbed by: Jesse O'Connor (imnotwearinganypants)
Tuning: Drop C	

This an amazing band out of Niagara Falls Canada. Some Parts are wrong but enjoy.

Guitar 1- Rhythm with Distortion
Guitar 2-Lead with Distortion

Guitar 1
[-----------------------------------------]
[-----------------------------------------]
[-----------------------------------------]
[--0-(0)-----8-7-57-0---------------------]
[--0-(0)-----8-7-57-0---------------------]
[--0-(0)-----8-7-57-0---------------------] 

Guitar 2
[-----------------------------------------]
[-----------------------------------------]
[-----------------------------------------]
[--7p0-8p0-10p0-8p0-----------------------]
[-----------------------------------------]
[-----------------------------------------]


Guitar 1 & 2
[-----------------------------------------]
[-----------------------------------------]
[-----------------------------------------]
[--0-(0)----------------------------------]
[--0-(0)----------------------------------]
[--0-(0)----------------------------------]

Drum Solo 

Verse part 1	
Guitar 1
[-----------------------------------------]
[-----------------------------------------]
[-----------------------------------------]
[--0-0-----0-0----0-0---8--7--------------]
[--0-0-----0-0----0-0---8--7--------------]
[--0-0-----0-0----0-0---8--7--------------]



Guitar 2
[-----------------------]--------------------------------]
[-----------------------]--------------------------------]
[10-10-9-9--------------]---12-12-10-10-9-9--------------]
[------------10-10-x3---]-------------------10-10--------]
[-----------------------]--------------------------------]	
[-----------------------]--------------------------------]

Guitar 1
Guitar 1 & 2
[----------------------------------------]
[----------------------------------------]
[----------------------------------------]
[--0-0---3-2-2---------------------------]
[--0-0------------3----------------------]
[--0-0-----------------------------------]
	

Verse part 2

Guitar 1 & 2
[-----------------------------------------]
[-----------------------------------------]
[-----------------------------------------]
[-----------------------------------------]
[-----------------------------------------]
[--000-000-000-000-000-000-000------------]
pm ... ... ... ... ... ... ...

Guitar 2
[-----------------------------------------]
[--------9--------------------------------]
[--7-10-----------------------------------]
[-----------------------------------------]
[-----------------------------------------]
[-----------------------------------------]

Guitar 1 & 2
[-----------------------------------------]
[-----------------------------------------]
[-----------------------------------------]
[--0-(0)-------0------0-------------------]
[--0-(0)-------0------0-------------------]
[--0-(0)-------0------0-------------------]	
                       Dance Bitch!
[ Tab from: http://www.guitartabs.cc/tabs/m/misc_unsigned_bands/a_minute_till_midnight_bullet_belt_disco_tab.html ]
Guitar 1 & 2
[-----------------------------------------]
[-----------------------------------------]
[-----------------------------------------]
[-----------------------------------------]
[-----------------------------------------]
[--000-000-000-000-000-000-000------------]
pm ... ... ... ... ... ... ... 

Guitar 2
[-----------------------------------------]
[--------9--------------------------------]
[--7-10-----------------------------------]
[-----------------------------------------]
[-----------------------------------------]
[-----------------------------------------]

Guitar 1 & 2
[----------------------------------------]
[----------------------------------------]
[----------------------------------------]
[--0-------------------------------------]
[--0-------------------------------------]
[--0-------------------------------------]


Guitar 1 & 2
[-----------------------------------------]
[-----------------------------------------]
[-----------------------------------------]
[------------------------8---(8)----------]
[------------------------8---(8)----------]
[--000-000-000-000-------8---(8)----------]	
pm...................

Guitar 2
[-------------------]----------------------]
[---13--------------]--13-11-10------------]
[-------10b12r10----]----------------------]
[-------------------]----------------------]
[-------------------]----------------------]
[-------------------]----------------------]	



Guitar 1 & 2
[-----------------------------------------]
[-----------------------------------------]
[-----------------------------------------]
[------------------------8---(8)----------]
[------------------------8---(8)----------]
[--000-000-000-000-------8---(8)----------]	
pm ... ... ... ...



Guitar 1 & 2
[-----------------------------------------]
[-----------------------------------------]
[-----------------------------------------]
[------0------0-----0----0----0-----------]
[------0------0-----0----0----0-----------]
[--00-0--00-0--000-000-000----------------]
pm ..    ..    ..  ..  ..	woo!


Guitar 1
[-----------------------------------------]
[-----------------------------------------]
[-----------------------------------------]
[--0-0-----0-0----0-0---8--7--------------]
[--0-0-----0-0----0-0---8--7--------------]
[--0-0-----0-0----0-0---8--7--------------]


Guitar 2
[-----------------------]--------------------------------]
[-----------------------]--------------------------------]
[10-10-9-9--------------]---12-12-10-10-9-9--------------]
[------------10-10-x3---]------------------------10-10---]
[-----------------------]--------------------------------]	
[-----------------------]--------------------------------]


Guitar 1 & 2
Guitar 2
[----------------------------------------]
[----------------------------------------]
[----------------------------------------]
[--000-----------------------------------]
[--000-----------------------------------]
[--000-----------------------------------]x17
Comments